Song name
# A B C D E F G H I J K L M N O P Q R S T U V W X Y Z

Radiohead - Follow Me Around tab

Dropped D & e Tuning (DADGBd)

...my take on this Yorke song, listen to some version of the song for the timing & 
(you can find recently played versions on YouTube)


Chords are basically D & G

Intro:

d|--0---------------0--------------0-------------------0----|
B|--3---------------3--------------3-------------------3----|
G|--2---------------2--------------2-------------------2----|
D|--0---------------0--------------0-----------2p0-----0----|
A|--0---------------0--------------0-------------------0----|
D|--0--------3---2--0-------3---2--0-------3\2-----0---0----|

then for the verse* it becomes:

d|--0------------------0----------------0-----------0--------------------0----|
B|--3------------------0----------------0-----------3--------------------3----|
G|--2------------------4----------------4-----------2--------------------2----|
D|--0------------------0----------------0-----------0-----------2p0------0----|
A|--0----------------/-5--------------/-5-----------0--------------------0----|
D|--0-------3---2--0-/-5-----3---2--0-/-5----3---2--0-------3\2------0---0----|

p = pull off
/ = slide up

*Note: the verse is the same as the chorus


Tip: try and really accentuate the high vs. low strings throughout the song, coordinated 
the strumming, plucking harder than you usually would. Play it all muddy-like

----------------------------------------
Tabbed by Alex Wilkerson 03 March 2010 (elscorcho2121)
Tap to rate this tab
# A B C D E F G H I J K L M N O P Q R S T U V W X Y Z