Song name
# A B C D E F G H I J K L M N O P Q R S T U V W X Y Z

Radiohead - Been Thinking About You tab

----------------------------------------------------------------
			     Been Thinking About You - Radiohead
----------------------------------------------------------------
Tabbed by: S Brita
Email: 

Tuning: regular 

Here are the three basic chords used in this song.  The base (E and A string) 
changes are what really carry the tune so bang them out.

e|-------------------------------------------------------------|
B|-------------------------------------------------------------|
G|-------------------------------------------------------------|
D|--5--5--5--5--5----------------------------------------------|
A|--5--5--5--3--3----------------------------------------------|
E|--3--3--3--3--3----------------------------------------------|

e|--2----------------------------------------------------------|
B|--3----------------------------------------------------------|
G|--2----------------------------------------------------------|
D|-------------------------------------------------------------|
A|-------------------------------------------------------------|
E|--2----------------------------------------------------------|

e|--0----------------------------------------------------------|
B|--0----------------------------------------------------------|
G|--0----------------------------------------------------------|
D|--2----------------------------------------------------------|
A|--2----------------------------------------------------------|
E|--0----------------------------------------------------------|


************************************

| /   slide up
| \   slide down
| h   hammer-on
| p   pull-off
| ~   vibrato
| +   harmonic
| x   Mute note
| b   Bend
| pb  Pre-bend
| br  Bend release
| pbr Pre-bend release
| brb Bend release bend

************************************
Tap to rate this tab
 
# A B C D E F G H I J K L M N O P Q R S T U V W X Y Z