Song name
# A B C D E F G H I J K L M N O P Q R S T U V W X Y Z

Radiohead - Planet Telex tab

Easy song but no good tabs..... first tab go easy

intro/"why cant you forget" (tremolo pedal)

1:----0----0---------0|
2:----0----2----3----1|
3:----1----2----4----2|
4:----2----2----4----2|
5:----2----0----2----0|
6:----0---------------|

verse (tremolo for everything but the solo)

1:------------------------------------|
2:----5-5----4-4-4-4----3-3----4-4-4-4|
3:----4-4----4-4-4-4----4-4----4-4-4-4|
4:----4-4----4-4-4-4----4-4----4-4-4-4|
5:----2-2----2-2-2-2----2-2----2-2-2-2|
6:------------------------------------|

"everything iissss"(distortion/tremolo)

1:----0---------------------------------|
2:----0----------4----------3----------4|
3:----1----------4----------4----------4|
4:----2----------2----------2----------2|
5:----2----------2----------2----------2|
6:----0----------0----------0----------0|


Solo(clean) intro played behind it repeat MANY times...

1:-------0--------0---------------2--------0----------|
2:----------0--------2---------------3---------1p0h1p0|
3:----1--------1--------2-----4---------2-------------|
4:----------------------------------------------------|
5:----------------------------------------------------|
6:----------------------------------------------------|

questions corrections email swarmofpoisonoussnakes@gmail.com
Tap to rate this tab
 
# A B C D E F G H I J K L M N O P Q R S T U V W X Y Z