Song name
# A B C D E F G H I J K L M N O P Q R S T U V W X Y Z

Radiohead - Optimistic tab

-------------------------------------------------------------------------------
			     OPTIMISTIC - Radiohead
-------------------------------------------------------------------------------
Tabbed by: James

Tuning: Drop D (DADGBe)

This is in terms of notation - therefore you will have to work the rhythm out for 
yourselves...not too difficult.

Intro:

e|-5--5---7--7---0---|-0--0---0--0---0---|
B|-6--6---8--8---7---|-3--3---5--5---7---|
G|-5--5---7--7---7---|-3--3---5--5---7---|
D|-0--0---0--0---0---|-3--3---5--5---0---|
A|-0--0---0--0---0---|-0--0---0--0---0---|
D|-0--0---0--0---0---|-0--0---0--0---0---|

e|-5--5---7--7---0---|-0--0---0--0---0---|-0--0---0--0---0--|
B|-6--6---8--8---7---|-3--3---5--5---7---|-3--3---5--5---7--|
G|-5--5---7--7---7---|-3--3---5--5---7---|-3--3---5--5---7--|
D|-0--0---0--0---0---|-3--3---5--5---0---|-3--3---5--5---0--|
A|-0--0---0--0---0---|-0--0---0--0---0---|-0--0---0--0---0--|
D|-0--0---0--0---0---|-0--0---0--0---0---|-0--0---0--0---0--|

Verse:

e|------0--0---0--0--|------0--0---0--0--|
B|------7--7---1--1--|------5--5---3--3--|
G|------7--7---2--2--|------5--5---4--4--|
D|------7--7---3--3--|------5--5---5--5--|
A|------0--0---0--0--|------0--0---x--x--|
D|-0-0--0--0---x--x--|-0-0--0--0---x--x--|

Repeat this 6 times

Chorus: two parts

1: (Jonny - i think)

e|----------------------------------------------|
B|--------------------------------3--5--7b8b7---|
G|-----------------------2--3--5----------------|
D|--------------2--3--5-------------------------|
A|--0--2--3--5----------------------------------|
D|----------------------------------------------|

This is not finished - but I will upload it and add to it as soon as I get another chance.

Tap to rate this tab
 
# A B C D E F G H I J K L M N O P Q R S T U V W X Y Z