Song name
# A B C D E F G H I J K L M N O P Q R S T U V W X Y Z

Radiohead - Harry Patch In Memory Of tab

Great song by a fantastic band. This is the string loop played through most the song. 
I play it on my keyboard with the string effect, sounds nice.

e|---0---------|
B|-----3-------|
G|-------2-----|    x4
D|---------4---|
A|-------------|
E|-------------|


e|---0---------|
B|-----3-------|
G|-------4-----|   x4
D|---------5---|
A|-------------|
E|-------------|

I havn't given any timing in the tabs so just pick that up yourself, it's real easy anyway.
Tap to rate this tab
 
# A B C D E F G H I J K L M N O P Q R S T U V W X Y Z