Radiohead - Go Slowly Acoustic tab

-------------------------------------------------------------------------------
			     GO SLOWLY (From the Basement) - Radiohead
-------------------------------------------------------------------------------
Tabbed by: I take no credit for this tab. All of the credit goes to "warrenmusic" from YouTube.
Email:

Tuning: Standard Tuning (E-A-D-G-B-e)

Thom strums on some parts of the song. Just listen to "Go Slowly - From the Basement" if 
you want to know where he strums. This is a version with Ed's part also included (kind 
of like a mix). Here we go...

Intro:

e------------------7-------------------------------7--------------|
B------------------0-------------------------------0--------------|
G----------7---------------7---------------7---------------7------|
D----------0---------------0---------------0---------------0------|
A--x---------------------------x----------------------------------|
E--7---------------------------7----------------------------------|
   . . . . . . . . . . . . . . . . . . . . . . . . . . . . . . . .
   1 . & . 2 . & . 3 . & . 4 . & . 1 . & . 2 . & . 3 . & . 4 . & .

e------------------7-------------------------------7--------------|
B------------------0-------------------------------0--------------|
G----------7---------------7---------------7---------------7------|
D----------0---------------0---------------0---------------0------|
A--7---------------------------7----------------------------------|
E--0---------------------------0----------------------------------|
   . . . . . . . . . . . . . . . . . . . . . . . . . . . . . . . .
   1 . & . 2 . & . 3 . & . 4 . & . 1 . & . 2 . & . 3 . & . 4 . & .

e------------------2-------------------------------2--------------|
B------------------0-------------------------------0--------------|
G----------0---------------0---------------0---------------0------|
D----------0---------------0---------------0---------------0------|
A--x---------------------------x----------------------------------|
E--3---------------------------3----------------------------------|
   . . . . . . . . . . . . . . . . . . . . . . . . . . . . . . . .
   1 . & . 2 . & . 3 . & . 4 . & . 1 . & . 2 . & . 3 . & . 4 . & .

e------------------2-------------------------------2--------------|
B------------------0-------------------------------0--------------|
G----------2---------------2---------------2---------------2------|
D----------0---------------0---------------0---------------0------|
A--x---------------------------x----------------------------------|
E--2---------------------------2----------------------------------|
   . . . . . . . . . . . . . . . . . . . . . . . . . . . . . . . .
   1 . & . 2 . & . 3 . & . 4 . & . 1 . & . 2 . & . 3 . & . 4 . & .

e----------2---0---0---0-------------------2---0---0---0----------|
B----------0---0---3---2-------------------0---0---3---2----------|
G----------4-------------------------------4----------------------|
D----------0-------------------0-----------0----------------------|
A------------------------------5----------------------------------|
E--0-------------------------------0------------------------------|
   . . . . . . . . . . . . . . . . . . . . . . . . . . . . . . . .
   1 . & . 2 . & . 3 . & . 4 . & . 1 . & . 2 . & . 3 . & . 4 . & .


Part A:


e----------7---5---0---0------------------------------------------|
B----------0---0---7---0-----------------------5---7--------------|
G----------7--(7)-(7)-(7)------7---7-------7-----------7----------|
D----------0-------------------0---0------------------------------|
A--x---------------------------x---x------------------------------|
E--7---------------------------7---7------------------------------|
   . . . . . . . . . . . . . . . . . . . . . . . . . . . . . . . .
   1 . & . 2 . & . 3 . & . 4 . & . 1 . & . 2 . & . 3 . & . 4 . & .

e----------7---5---0---0------------------------------------------|
B----------0---0---7---0-----------------------5---7--------------|
G----------7--(7)-(7)-(7)------7---7-------7-----------7----------|
D----------0-------------------0---0------------------------------|
A--7---------------------------7---7------------------------------|
E--0---------------------------0---0------------------------------|
   . . . . . . . . . . . . . . . . . . . . . . . . . . . . . . . .
   1 . & . 2 . & . 3 . & . 4 . & . 1 . & . 2 . & . 3 . & . 4 . & .

e-----------------------------------------------------------------|
B------------------2---3---------------------------2---3----------|
G----------2---4---------------------------2---4------------------|
D------------------------------0----0--------------------------0--|
A--x---------------------------x----x--------------------------x--|
E--3---------------------------3----3--------------------------3--|
   . . . . . . . . . . . . . . . . . . . . . . . . . . . . . . . .
   1 . & . 2 . & . 3 . & . 4 . & . 1 . & . 2 . & . 3 . & . 4 . & .

e-----------------------------------------------------------------|
B------------------2-------------------------------2---3----------|
G----------2---4-------2-------------------2---4------------------|
D--0---------------------------0---0---------------------------0--|
A--x---------------------------x---x---------------------------x--|
E--2---------------------------2---2---------------------------2--|
   . . . . . . . . . . . . . . . . . . . . . . . . . . . . . . . .
   1 . & . 2 . & . 3 . & . 4 . & . 1 . & . 2 . & . 3 . & . 4 . & .

e----------2---0---0---0-------------------2---0---0---0----------|
B----------0---0---3---2-------------------0---0---3---2----------|
G----------4---4---4---4-------------------4---4---4---4----------|
D---------(0)-(0)-(0)-(0)------0---0------(0)-(0)-(0)-(0)---------|
A--5------(5)-(5)-(5)-(5)------5---5------(5)-(5)-(5)-(5)------5--|
E--0---------------------------0---0---------------------------0--|
   . . . . . . . . . . . . . . . . . . . . . . . . . . . . . . . .
   1 . & . 2 . & . 3 . & . 4 . & . 1 . & . 2 . & . 3 . & . 4 . & .


INCOMPLETE!!!



************************************


| x   Mute note
|(x)  Optional to play note

************************************
Tap to rate this tab
 
# A B C D E F G H I J K L M N O P Q R S T U V W X Y Z