Radiohead - Lotus Flower Live tab

Tab by maximum 737
Lotus flower, live version haiti benefit in LA with only one guitar and voice
Tuning: drop C (C A D G B E)

Riff 1 intro X 4
-----------------------|
------3-----3-----3----|
----2-----2-----2------|
-----------------------|
-----------------------|
--5-----2-----0--------|


I will sneak myself into your pocket... etc
-----------------------|
------3-----3-----3----|
----2-----2-----2------|
-----------------------|
-----------------------|
--5-----2-----0--------|

Riff 2 (play 2 times) then back to riff 1

... want, do what you...
-----------------------|
-----------------------|
------4---------4------|
----5-----5---5--------|
-----------------------|
--7-----4---5----------|

...want. I will sink and I will disappear...
-----------------------|
------3-----3-----3----|
----2-----2-----2------|
-----------------------|
-----------------------|
--5-----2-----0--------|


Riff 3
Slowly we unfurl like lotus flowers etc
-------------------------------------------------------------------------------|
-----3----3---------   3-------3-----------------------------------------------|
---2----2-----2----2------2------2---------------------------------------------|
----------------------------------------8------8-----------8--------7----------|
-1----1-----1---1-------1------1-----10-----10-----10---10---10---8---8--------|
-----------------------------------7------7------7----7---------5--------------|
Tap to rate this tab
 
# A B C D E F G H I J K L M N O P Q R S T U V W X Y Z