Song name
# A B C D E F G H I J K L M N O P Q R S T U V W X Y Z

Radiohead - Everything In Its Right Place tab

This is my first tab ever. Standard tuning. 124 bpm. It's damn close, if not exact.

C major: x32010
DbMaj13: x43010
Cm/Eb: xx101x
F major: 133211
DbMaj7: x43111
Cm7/Eb: xx131x
Ebadd9: x410xx

Intro: Play 3 times

   C           DbMaj13     Cm/Eb
|--------------------------------------------------------------------|
|--1---1--1----1-----1------1----1--------1-----1--------------------|
|--0---0--0----0-----0------0----0-----------3-----------------------|
|--2---2--2----3-----3------1---------1------------------------------|
|--3-----------4-----------------------------------3-----------------|
|--------------------------------------------------------------------|


Everything,------
Chorus: Play 4 times

   F     C          DbMaj13      Cm/Eb
|--------------------------------------------------------------------|
|--1-----1----1----1-----1--------1------1---------1-----1-----------|
|--2-----0----0----0-----0--------0------0------------3--------------|
|--3-----2----2----3-----3--------1------------1---------------------|
|--------3---------4-------------------------------------------------|
|--1---------------------------------------------------------1-------|


Verse: Play 4 times
Yesterday I woke up sucking a lemon...

DbMaj7     C    Cm7/Eb   Dbmaj7


Chorus 2: Play 8 times

C   DbMaj13   Cm/Eb

Back to Verse, play 9 times

Bridge:
Ebadd9    F  C  DbMaj13


That's it. Hope you enjoyed it.
Tap to rate this tab
 
# A B C D E F G H I J K L M N O P Q R S T U V W X Y Z