Radiohead - Little By Little Acoustic tab

Radiohead - Little by Little
(tabbed by Tobias Fensch, Germany)

Dropped-D Tuning (DADGBE)

Great band, great song, fun to play...

This tab is based on Warren Lain's incredible video tutorial on YouTube. 
Go and check out his channel! There are much more tutorials of Radiohead 
songs available.


Intro

|---------------------------------|-----------------------------------|
|---------------------------------|-----------------------------------|
|---------------------------------|-----------------------------------|
|---------------------------------|-----------------------------------|
|--3---3---2---0---5---5---4---0--|--8---8---7---0---10---10---9---0--|
|--3---3---2---0---5---5---4---0--|--8---8---7---0---10---10---9---0--|


Verse

|---------------------------------|-----------------------------------|
|---------------------------------|-----------------------------------|
|----2---2---1-------3---3---2----|----7---7---6--------9----9---8----|
|---------------------------------|-----------------------------------|
|--3---3---2---0---5---5---4---0--|--8---8---7---0---10---10---9---0--|
|--3---3---2---0---5---5---4---0--|--8---8---7---0---10---10---9---0--|


Chorus

Pattern 1:
|------------------------------------------|
|------------------------------------------|
|------11/10-----10--------10--------9/7~--|
|----0---------0---------0---------0-------|
|------------------------------------------|
|--0---------8------8-10------10-----------|

Pattern 2:
|-------------------------------------------|
|-------------------------------------------|
|------11/10-----10--------10-9------9-11~--|
|----0---------0---------0---------0--------|
|-------------------------------------------|
|--0---------8------8-10--------10----------|

Pattern 3:
|-------------------------------|
|-------------------------------|
|------7-----7------7-------7~--|
|------0-----0------0-------0---|
|-------------------------------|
|--0-----0-8---8-10---10-7h8----|


Bridge I

|--------------------------------|
|--------------------------------|
|------3-----3-------5---7----9--|
|------0-----0-------0---0----0--|
|--------------------------------|
|--5-----5-5---5-7-----8---10----|


Bridge II

|-----------------------------------------------------------|
|--------------------3-----3-------3-----3-------3---4-3----|
|------3-----3-------0-----0-------2-----2-------2---2-2----|
|------0-----0----------------------------------------------|
|-----------------------------------------------------------|
|--5-----5-5-----1-----1-1-----4-----4-4----4-0----0-----0--|


Structure

Intro
Verse
Chorus (Pattern 1)
Bridge I
Chorus (Pattern 1)
Bridge I
Verse
Chorus (Pattern 1+2)
Bridge II
Bridge I
Chorus (Pattern 1+2+3)
End


Lyrics

The dark cell
The pit of my soul
The last one out of the box
The one who broke this spell

Little by little by hook or by crook
I'm such a tease
And you're such a flirt
Once you've been hurt
You've been around enough
Little by little by hook or by crook
Never get nervous
Never get judged
I'm no idiot
I should look

Your clue on hold, snapped up
Crawling with my love
The last one out of the box
The one that broke the seal

Obligation
Complication
Routines and schedules
Drug and kill you
Kill you

Little by little by hook or by crook
Never get nervous
Never get judged
I'm no idiot
I should look 

End
Tap to rate this tab
 
# A B C D E F G H I J K L M N O P Q R S T U V W X Y Z