Song name
# A B C D E F G H I J K L M N O P Q R S T U V W X Y Z

Radiohead - Idioteque tab

-------------------------------------------------------------------------------
			     Idioteque - Radiohead
-------------------------------------------------------------------------------
Tabbed by: oli-kun
Email: oliveredwardmartin@gmail.com

Tuning: Standard

e|---6-----1-------------1-----------------------------------------------------|
B|----------------3------------------------------------------------------------|
G|-----------------------------------------------------------------------------|
D|----------------0------1-----------------------------------------------------|
A|-----------------------------------------------------------------------------|
E|---3-----3------3------------------------------------------------------------|

This is pretty much played through the whole song as it copies the synth notes, just 
listen for the right pattern. As it isn't meant for guitar you can pretty much strum the 
strings however you think fits best.

Enjoy!
Tap to rate this tab
 
# A B C D E F G H I J K L M N O P Q R S T U V W X Y Z