Radiohead - Everything In Its Right Place tab

-----------------------------------------
  Artist: Radiohead
  Title: Everything In It's Right Place
  Album: Kid A
-----------------------------------------

This is the way I play it on Guitar. 
I think it's as close as possible to the original version.
It's a half step lower then the orginal version, you could use a capo on the first 
fret for the same pitch. 
For the best sound, try not to mute the open strings when switching chords.



(0:00)
   1 . 2 .   1 . 2 .    1 . 2 .    1 . 2 .    1 . 2 .    1 . 2 .  
e|---------|----------|----------|----------|----------|----------|
B|-0-------|-0-----0--|---0---0--|---0---0--|---0------|-0---0----|
G|---0-----|-x-----x--|---x---0--|---0---x--|---x------|----------|
D|-----4---|-4-----4--|---4---5--|---5---7--|---7------|---7------|
A|-------6-|-6-----6--|---6---7--|---7---9--|---9------|----------|
E|---------|(7)----7--|---7---8--|---8---10-|---10--10-|-------10-|

(0:06)
    1 . 2 .    1 . 2 .    1 . 2 .    1 . 2 .    1 . 2 .  
e|-----------|----------|----------|----------|----------|
B|--0-----0--|---0---0--|---0---0--|---0------|-0---0----|
G|--x-----x--|---x---0--|---0---x--|---x------|---0-x----|
D|--4-----4--|---4---5--|---5---7--|---7------|-----4----| x6
A|--6-----6--|---6---7--|---7---9--|---9------|-------6--|
E|-(7)----7--|---7---8--|---8---10-|---10--10-|----------|

(0:35)                                         _______1,2,3   _________4  
    1 . 2 .    1 . 2 .    1 . 2 .    1 . 2 .    1 . 2 .        1 . 2 .   
e|-----------|----------|----------|----------|----------|   |----------|
B|--0-----0--|---0---0--|---0---0--|---0------|-0---0----|   |-0--------|
G|--4-----x--|---x---0--|---0---x--|---x------|----------|   |---0------|
D|--6-----4--|---4---5--|---5---7--|---7------|---7---0--|   |-----4----|
A|-(7)----6--|---6---7--|---7---9--|---9---9--|----------|   |-------6--|
E|--------7--|---7---8--|---8---10-|---10-----|----------|   |----------|

(0:55) >same as (0:06)
    1 . 2 .    1 . 2 .    1 . 2 .    1 . 2 .    1 . 2 .  
e|-----------|----------|----------|----------|----------|
B|--0-----0--|---0---0--|---0---0--|---0------|-0---0----|
G|--x-----x--|---x---0--|---0---x--|---x------|---0-x----|
D|--4-----4--|---4---5--|---5---7--|---7------|-----4----| x6
A|--6-----6--|---6---7--|---7---9--|---9------|-------6--|
E|-(7)----7--|---7---8--|---8---10-|---10--10-|----------|

(1:14)
    1  . 2 .    1 . 2 .   1 . 2 .    1 . 2 .    1 . 2 .   
e|-----------|----------|----------|----------|----------|
B|-(0)-0-0---|------0---|---0---0--|---0------|-------0--|
G|-(4)-4-4---|------4---|---4---x--|---x------|-------4--|
D|-(5)-5-5---|------5---|---5---5--|---5---7--|---7---5--| x4
A|-(7)-7-7---|------7---|---7---7--|---7---9--|---9---7--|
E|-----------|----------|-------8--|---8---10-|---10-----|
    ^First time only.

(1:33) >same as (0:35)                         _______1,2,3   _________4  
    1 . 2 .    1 . 2 .    1 . 2 .    1 . 2 .    1 . 2 .        1 . 2 .   
e|-----------|----------|----------|----------|----------|   |----------|
B|--0-----0--|---0---0--|---0---0--|---0------|-0---0----|   |-0--------|
G|--4-----x--|---x---0--|---0---x--|---x------|----------|   |---0------|
D|--6-----4--|---4---5--|---5---7--|---7------|---7---0--|   |-----4----|
A|-(7)----6--|---6---7--|---7---9--|---9---9--|----------|   |-------6--|
E|--------7--|---7---8--|---8---10-|---10-----|----------|   |----------|

(1:53) >same as (0:06)
    1 . 2 .    1 . 2 .    1 . 2 .    1 . 2 .    1 . 2 .  
e|-----------|----------|----------|----------|----------|
B|--0-----0--|---0---0--|---0---0--|---0------|-0---0----|
G|--x-----x--|---x---0--|---0---x--|---x------|---0-x----|
D|--4-----4--|---4---5--|---5---7--|---7------|-----4----| x4
A|--6-----6--|---6---7--|---7---9--|---9------|-------6--|
E|-(7)----7--|---7---8--|---8---10-|---10--10-|----------|

(2:12) >same as(1:14)
    1  . 2 .    1 . 2 .   1 . 2 .    1 . 2 .    1 . 2 .   
e|-----------|----------|----------|----------|----------|
B|-(0)-0-0---|------0---|---0---0--|---0------|-------0--|
G|-(4)-4-4---|------4---|---4---x--|---x------|-------4--|
D|-(5)-5-5---|------5---|---5---5--|---5---7--|---7---5--| x4
A|-(7)-7-7---|------7---|---7---7--|---7---9--|---9---7--|
E|-----------|----------|-------8--|---8---10-|---10-----|

(2:51)                              ________________1,2,4     ____________________3
    1 . 2 .    1 . 2 .    1 . 2 .    1 . 2 .    1 . 2 .        1 . 2 .    1 . 2 . 
e|-----------|----------|----------|----------|----------|   |----------|----------|
B|-----------|----------|----------|----------|----------|   |----------|----------|
G|--4-----4--|---4------|----------|----------|----------|   |----------|----------|
D|--6-----4--|---4---5--|---5---7--|---7------|----------|   |---7------|----------| x4
A|--7-----6--|---6---7--|---7---9--|---7---7--|----------|   |---9---9--|----------|
E|-----------|-------8--|---8---10-|---10-----|----------|   |---10-----|----------|
Tap to rate this tab
 
# A B C D E F G H I J K L M N O P Q R S T U V W X Y Z