Song name
# A B C D E F G H I J K L M N O P Q R S T U V W X Y Z

Radiohead - You tab

You by Radiohead

Tabbed by: Monotovs Opera
Email: tomorrowwillbebetter@live.com

Tuning: Standard EADGBe
Time Signature: three bars of 6/8, then one of 5/8
Two guitars: one clean with echo, the other distorted

My apologies, I know it is not that well organized

Intro
Guitar 1
e|------0-----0------0-----0-----0-----0-----0---0-|
B|----0-----15-----0-----15----0-----0-----0-------|
G|-13-----13-----13----13----16----16----14----14--|
D|-------------------------------------------------|
A|-------------------------------------------------|
E|-------------------------------------------------| x2

e|-----0------0------0-----0-----0-----0-----0---0-|
B|---0------0------0-----0-----0-----0-----0-------|
G|-13-----13-----13----13----16----16----14----14--|
D|-------------------------------------------------|
A|-------------------------------------------------|
E|-------------------------------------------------| x2

Guitar 2 in second half of intro
e|---0-----0-----0--0--3--2-0-----------0-00--333--2-|
B|---0-----0-----3--3--3--3-0-----11b12-3-33--333--3-|
G|-xx1-----1-----0--0--0--2-1-----------0-00--000--2-|
D|-xx2-----2-----2--2--0--0-2-----------2-22--000--0-|
A|-xx2-----2-----3--3--2----2-----------3-33--222----|
E|-xx0-----0-----------3----0-----------------333----|


Verse
Transition to E and let ring

You are the sun and moon and stars, are you
and I could never run away from

Pre-Solo
e|-------------------------------------------------------|
B|-------------------------------------------------------|
G|-6----5-----7/9-x-x-12\9-9--7/9-x-x-14-12-9--6----5----|
D|-6-x6-5-x6--x-x-x-x-x--x-x--x-x-x-x-x--x--x--6-x6-5-x6-|
A|-4----3-----5/7-x-x-10\7-7--5/7-x-x-12-10-7--4----3----|
E|-------------------------------------------------------|
   You...

Solo
e|----------------------------------------------------------------------|
B|----------------------------------------------------------------------|
G|-/9-9-9/11-11-11/12-12-12/14-14-14/16-16-16/17-17-17/16-16-16-9-7-9-7-|
D|-/x-x-x---------------------------------------------------------------|
A|-/7-7-7/9--9--9-/10-10-10/12-12-12/14-14-14/15-15-15/14-14-14---------|
E|----------------------------------------------------------------------|

e|--------------------------------------------------------------------------|
B|--------------------------------------------------------------------------|
G|-/9-9-9-11-11-11-12-12-12-14-14-14-16-16-16-17-17-17-16-16-16-9-7-9-7-9b10|
D|-/x-x-x-------------------------------------------------------------------|
A|-/7-7-7-9--9--9--10-10-10-12-12-12-14-14-14-15-15-15-14-14-14-------------|
E|--------------------------------------------------------------------------|
Let final note ring


Verse (arpeggiate these chords)
EM  Em
You try at working out chaotic things,
EM      Em
And why should I believe myself not 

Then:
e|-0-----0---------------------3-2-0-0-----0---------------------3-2-0-|
B|-0-----0-----------3-------3-------0-----0-----------3-------3-------|
G|-1-----0---------0---0-------------1--11-0--00-----0---0-------------|
D|-2-----2-------0-------0-----------2--22-2--22---0-------0-----------|
A|-2-----2-----3---------------------2--22-2--22-3---------------------|
E|-0-----0-----------------3---------0--00-0--00-------------3---------|
   You...

Over this riff, there’s also a second guitar playing this:
e|---------------------7+--------------------------------7+------------|
B|---------------------------------------------------------------------|
G|-13~~~~12~~~~\---------------------13~~~~12~~~~\---------------------|
D|---------------------------------------------------------------------|
A|---------------------------------------------------------------------|
E|---------------------------------------------------------------------|

Verse
EM   Em       C     	      G   D  EM
Its like the world is going to end so soon,

    Em         C         G  D
And why should I believe myself?

A background guitar plays something like this over the verse
e|-------0-----------0-----------3-----3-----2---|
B|---------0-----------0-----------5-----3-----3-|
G|-1---1-----1-0---0-----0-5---5-----5-----4-----|
D|-----------------------------------------------|
A|-----------------------------------------------|
E|-----------------------------------------------| x2

Repeat Pre-Solo

Bridge:
Pause EM C G D
EM EM C G D

Background guitar plays this:
e|-0-----0---------------------3-2-0-0-----0---------------------3-2-0-|
B|-0-----0-----------3-------3-------0-----0-----------3-------3-------|
G|-1-----0---------0---0-------------1--11-0--00-----0---0-------------|
D|-2-----2-------0-------0-----------2--22-2--22---0-------0-----------|
A|-2-----2-----3---------------------2--22-2--22-3---------------------|
E|-0-----0-----------------3---------0--00-0--00-------------3---------|


Solo (let final note ring)

Then:
e|----------------------------------------------|
B|----------------------------------------------|
G|----------------------------------------------|
D|-9~--9-9-9-9-9-9-9-9-10-10-10-9-9-9-9-9-9-9-9-|
A|-7~--7-7-7-7-7-7-7-7-7--7--7--7-7-7-7-7-7-7-7-|
E|----------------------------------------------|

e|-------------------------------------------------|
B|-------------------------------------------------|
G|-------------------pb10~~~~~~r9-(release slowly)-|
D|-------------------------------------------------|
A|-------------------------------------------------|
E|-------------------------------------------------|


Verse
You, me, and everything, caught in the fire,
I can see me drowning, caught in the fire.

e|------0-----0------0-----0-----0-----0-----0---0-|
B|----0-----15-----0-----15----0-----0-----0-------|
G|-13-----13-----13----13----16----16----14----14--|
D|-------------------------------------------------|
A|-------------------------------------------------|
E|-------------------------------------------------| x4


Verse
You, me, and everything, caught in the fire,
and I can see me drowning, caught in the fire.

e|------0-----0------0-----0-----0-----0-----0---0-|
B|----0-----15-----0-----15----0-----0-----0-------|
G|-13-----13-----13----13----16----16----14----14--|
D|-------------------------------------------------|
A|-------------------------------------------------|
E|-------------------------------------------------| x1

e|-----0------0------0-----0-----0-----0-----0---0-|
B|---0------0------0-----0-----0-----0-----0-------|
G|-13-----13-----13----13----16----16----14----14--|
D|-------------------------------------------------|
A|-------------------------------------------------|
E|-------------------------------------------------| x3

e|----------------------------------|
B|----------------------------------|
G|--------------------5---5---------|
D|--2--x-x-x-2--x-x-x-5---5---5---5-|
A|--2--x-x-x-2--x-x-x-3---3---5---5-|
E|--0--x-x-x-0--x-x-x---------3---3-|

End on E

************************************
| /   slide up
| \   slide down
| ~   vibrato
| +   harmonic
| x   Mute note
| b   Bend
| pb  Pre-bend
| r   Release
************************************
Tap to rate this tab
 
# A B C D E F G H I J K L M N O P Q R S T U V W X Y Z