Radiohead - Bloom tab

e-------------------------------------|
B17--15--13h15p13--13--12-------------|
G-------------------------14----------|
D-------------------------------------|x12
A-------------------------------------|
D-------------------------------------|

e---------------------------|
B---------------------------|
G--7--9--7--9--7--9--7--9---|    Until brigde
D---------------------------|
A---------------------------|
D---------------------------|

Bridge

e----------------------------------------------------|
B--10x6--15x3---13x3--12x6--8x3--10x3--6x6--5x3--3x3-|
G----------------------------------------------------|
D----------------------------------------------------|
A----------------------------------------------------|
D----------------------------------------------------|

Verse

e--8--10--8--10--8--10--8--10-----------|
B--8--10--8--10--8--10--8--10-----------|
G--7--9--7--9--7--9--7--9---------------|
D---------------------------------------|
A---------------------------------------|
D---------------------------------------|

Repeat either three after bridge
Tap to rate this tab
 
# A B C D E F G H I J K L M N O P Q R S T U V W X Y Z