Song name
# A B C D E F G H I J K L M N O P Q R S T U V W X Y Z

Radiohead - Idioteque tab

-------------------------------------------------------------------------------
			     IDIOTEQUE - Radiohead
-------------------------------------------------------------------------------
Tabbed by: Yeungeth
Email: alex_homme_yeung@yahoo.com


Tuning:EADGBe

Whole Song (played after 6 bars of drums):
    1 + 2 + 3 + 4 + 1 + 2 + 3 + 4 + 1 + 2 + 3 + 4 + 1 + 2 + 3 + 4 +
e|-----------------------------------------------------------------|
B|-----------------------------------------------------------------|
G|----------------------------------3---------------8--------------|
D|--5---------------8---------------3---------------5--------------|
A|--5---------------5---------------5---------------6--------------|
E|--3---------------6----------------------------------------------|


i just tried to play all the tabs that were currently on here and none sounded right at 
all, so i researched up about the original sample and came up with this!
Tap to rate this tab
# A B C D E F G H I J K L M N O P Q R S T U V W X Y Z