Song name
# A B C D E F G H I J K L M N O P Q R S T U V W X Y Z

Radiohead - National Anthem tab

Song: The National Anthem
Artist: Radiohead
Tabbed by:Trifonas
Email:trifwnas@hotmail.gr
Tuning:DADGBe (Drop D)

Well, here we go! The songs lasts almost 4 minutes and the main riff repeats
continuously in this. I've tabbed the riff, which is played on bass with distortion by 
Colin, the
solos, which are played on electric guitar by Ed and the trumpets part. However some 
parts are missing (I couldn't tab the whole trumpet's part).

Main Riff:
e:|-----------------------------------------------|
B:|-----------------------------------------------|
G:|-----------------------------------------------|
D:|-----------------------------------------------|
A:|-----------------------------------------------|
D:|---h4--0-0-0--h4--0-0-0-0-h3--0-0-0--h2--0-0-0-|

Electric Guitar (Ed O'Brien): (00:31-listen carefully)
e:|-----------------------------------------------|
B:|---10b---8\7-----------------------------------|
G:|-----------------------------------------------|
D:|-----------------------------------------------|
A:|-----------------------------------------------|
D:|-----------------------------------------------|

01:57
e:|-----------------------------------------------|
B:|---10---7/11----8/10--7/11-----8\7-------------|
G:|-----------------------------------------------|
D:|-----------------------------------------------|
A:|-----------------------------------------------|
D:|-----------------------------------------------|

e:|-----------------------------------------------|
B:|--10---/7--\11--11b-11p10-----7\11---11b-11/10-|
G:|-----------------------------------------------|
D:|-----------------------------------------------|
A:|-----------------------------------------------|
D:|-----------------------------------------------|

Trumpet Section (02:38)Repeat this a few times with variations
e:|-----------------------------------------------|
B:|-----------------------------------------------|
G:|-----5--5-5-5-5~-------5-5-----5-5-------------|
D:|-----------------------------------------------|
A:|----5--5---5----------------------5------------|
D:|---0--------------0-0-0---0-0-0----------------|

03:53
e:|-----------------------------------------------|
B:|---10~-10p9-----10~--10p9----------------------|
G:|-----------------------------------------------|
D:|-----------------------------------------------|
A:|-----------------------------------------------|
D:|-----------------------------------------------|

LEGEND:
| /   slide up
| \   slide down
| h   hammer-on
| p   pull-off
| ~   vibrato
| b   Bend
Tap to rate this tab
# A B C D E F G H I J K L M N O P Q R S T U V W X Y Z