Song name
# A B C D E F G H I J K L M N O P Q R S T U V W X Y Z

Radiohead - The Daily Mail tab

Jonny's part on this song is pretty simple. He comes in at 2:22 on the
single version. This is my first tab, and I did it without a guitar, but
I'm pretty sure it's all correct. Jonny uses only some light distortion,
probably because he sets his AC30 close at just above breakup, for the
part.He gets more gain during Part A by picking harder, then he cleans up
a little for Part B by picking softly.
Good luck!


(Part A: 2:22)
E--------------------------------------------------------------------| x3
B--------------------------------------------------------------------|
G--------------------------------------------------------------------|
D------10-------10------10-------10------10------10------10--10--10--|
A--------------------------------------------------------------------|
E--8--------8-8-----8-------11-11----10------10------13------13--13--|


The last time he cuts it short. (3:03)
E----------------------------------| x1
B----------------------------------|
G----------------------------------|
D------10------10------10------10--|
A----------------------------------|
E--8-------8-8-----888-----9-------|
 

Then he plays this until the end. (Part B: 3:06)
E------------------------------------------------------------------------| x2
B------------------------------------------------------------------------|
G------------------------------------------------------------------------|
D------8--------8--------8--------8--------8--------8--------8--------8--|
A------------------------------------------------------------------------|
E--6--------6--------6--------9--------8--------8--------11-------11-----|


Then he finishes on this. (3:22)
E------| x1
B------|
G------|
D--10--|
A------|
E--8---|
Tap to rate this tab
# A B C D E F G H I J K L M N O P Q R S T U V W X Y Z