Song name
# A B C D E F G H I J K L M N O P Q R S T U V W X Y Z

Radiohead - Cut A Hole tab

-------------------------------------------------------------------------------
                             RADIOHEAD – Cut A Hole
-------------------------------------------------------------------------------
Tabbed by: fallwind

Tuning: Standard

Hi there everybody here is a beautiful new song by Radiohead I fell in love with and 
made an ear transcription in a week since they first played it...and its my very first :). 
The timing is probably not accurate but youll get it easily by listening to the song

The first part (until „faaaceee“)
e|---------------------------------------------------------------------------|
B|------------6-----------6------------8------------8------------8-----------|
G|--------------7-----------7------------7------------7------------6---------|
D|----------7----------------------------------------------------------------|
A|--5---5-5------------------------------------------------------------------|
E|----------------8---8-8------7---7-7------6---6-6------5---5-5-------------|

e|---------------------------------------5-----------5-----------------------|
B|------------6-----------10-------------------------------------8-----------|
G|--------------7------------10------------7-----------7------------6--------|
D|----------7----------------------------------------------------------------|
A|--5---5-5------------------------------------------------------------------|
E|----------------8---8-8-------7---7-7------6---6-6------5---5-5------------|
                             *You can use thumb for these
The second part
e|---------------5-5----5-------------------------5----5-5-------------------|
B|---6-6----10---0-0----X----8-8----6----10-10----0----X-X----8--------------|
G|---7-7----10---7-7----7----6-6----7----10-10----7----7-7----6--------------|
D|---7-7----10---0-0----0----7-7----7----10-10----0----0-0----7--------------|
A|-5-5-5---------X-X----X----X-X--5-5-------------X----X-X----X--------------|
E|--------8----7-7-7--6-6--5-----------8-------7--7--6------5----------------|

Repeat this until the end :)
Tap to rate this tab
 
# A B C D E F G H I J K L M N O P Q R S T U V W X Y Z