Song name
# A B C D E F G H I J K L M N O P Q R S T U V W X Y Z

Radiohead - Myxomatosis tab

----------------------------------------------------------------------------
			     Myaomatosis - Radiohead
----------------------------------------------------------------------------
Tabbed by:
Email:shoebrain@hotmail.com

Tuning:standard

          Main Riff:1
e|------------------------------------------------------------|
B|------------------------------------------------------------|
G|-----------------------4-5---------------------7------------|
D|---------------------------------------7---------7-9--------|
A|-10-7-9-5-7-3-5-2-2-3-------10-7-9-5-7---10-7---------------|
E|------------------------------------------------------------|

          Main Riff:2
e|-------------------------------------------------------------|
B|-------------------------------------------------------------|
G|----------------------------------------------9------14-7-9--|
D|-12-9-11-7-9-5-7-4-4-5---16-17----12-9-11-7-9-7-12-9-12-9-11-|
A|-10-7-9--5-7-3-5-2-2-3---14-15----10-7-9--5-7---10-7---------|
E|-------------------------------------------------------------|

Thats It.I Think
Tap to rate this tab
# A B C D E F G H I J K L M N O P Q R S T U V W X Y Z