Song name
# A B C D E F G H I J K L M N O P Q R S T U V W X Y Z

Radiohead - Full Stop tab

-------------------------------------------------------------------------------
                             FUL STOP - Radiohead
-------------------------------------------------------------------------------
Tabbed by: Mannu
E-mail: mannukhan@me.com

Tuning: Standard

e|---------------------------------------------------------------------------|
B|----16-18-20--16-18-----------------------------------------------(times 3)|
G|-17------------------------------------------------------------------------|
D|---------------------------------------------------------------------------|
A|---------------------------------------------------------------------------|
E|---------------------------------------------------------------------------|

e|---------------------------------------------------------------------------|
B|----16-18----16----16-18----16---------------------------------------------|
G|-17-------15----17-------15----17------------------------------------------|
D|---------------------------------------------------------------------------|
A|---------------------------------------------------------------------------|
E|---------------------------------------------------------------------------|


************************************

| /   slide up
| \   slide down
| h   hammer-on
| p   pull-off
| ~   vibrato
| +   harmonic
| x   Mute note
| b   Bend
| pb  Pre-bend
| br  Bend release
| pbr Pre-bend release
| brb Bend release bend

************************************
Tap to rate this tab
# A B C D E F G H I J K L M N O P Q R S T U V W X Y Z