Song name
# A B C D E F G H I J K L M N O P Q R S T U V W X Y Z

Radiohead - Thinking About You tab

-------------------------------------------------------------------------------
			     Thinking About You - Radiohead
-------------------------------------------------------------------------------
Tabbed by: Tom Hopper
Email: tom-hopper@hotmail.co.uk

Tuning: Standard (EADGBe)


the main gutiar line consists of G, G/F#? D and Em Chords. You can add the F# on the E 
for the D chord which gives a different sound but it's up to you if you do it.
e|-3--3--3--2--0----------|
B|-3--3--3--3--0----------|
G|-0--0--0--2--0----------|
D|-0--0--0--0--2----------|
A|-2--0--2-----2----------|
E|-3--2--3-----0----------|
been thinking about you.... etc


The chorus part consists of C and Bmajor chords
e|---0---2---0-----|
B|---1---4---1-----|
G|---0---4---0-----|
D|---2---4---2-----|
A|---3---2---3-----|
E|-----------------|
All the things you got, all the things you need...

The rhythms are very straight forward and very easy to pick up.

Verse X 2
Chorus
Verse X 2
Chorus

End on a G Major chord and let it ring.

Thanks!

Tom x


| /  slide up
| \  slide down
| h  hammer-on
| p  pull-off
| ~  vibrato
| +  harmonic
| x  Mute note
===============================================================================
Tap to rate this tab
# A B C D E F G H I J K L M N O P Q R S T U V W X Y Z