Song name
# A B C D E F G H I J K L M N O P Q R S T U V W X Y Z

Radiohead - Staircase tab

Jonny's part, it's all in the left earphone.

Jonny is using the neck pickup on his Fender Telecaster Plus V1. For delay his is using
the Boss RE20 Space Echo, and if he does use a phaser it would be his EHX Small Stone V4.

I listed this as intermediate because of the Chorus/Outro, which require slightly
difficult finger picking.

Introduction x1
Verse 1 x3
Chorus x1
Verse 2 x1
Coda x1


___________________________________________________________________________________

Introduction
Play once.

Palm mute. Play with pick.
E|--------------------------------------------------------------------------------|
B|--------------------------------------------------------------------------------|
G|--------------------------------------------------------------------------------|
D|--------------------------------------------------------------------------------|
A|-3-5--3-5--3-5--3-5--3-5--3-5--3-5--3-5--3-5--3-5--3-5--3-5--3-5--3-5--3-5--3-5-|
E|-----5---------5---------5---------5---------5---------5---------5---------5----|

E|----------------------------------------------------------------------|
B|----------------------------------------------------------------------|
G|----------------------------------------------------------------------|
D|----------------------------------------------------------------------|
A|--------------------------3-2--3-2--3-2--3-2--------------------------|
E|-3-5--0-3-5--3-5--0-3-5-------3---------3-----3-5--0-3-5--3-5--0-3-5--|

___________________________________________________________________________________

Verse 1
Play this section three times.

Palm mute, play with pick.
E|----------------------------------------------------------------------|
B|----------------------------------------------------------------------|
G|----------------------------------------------------------------------|
D|----------------------------------------------------------------------|
A|-3-5--3-5--3-5--3-5--3-5--3-5--3-5--3-5--3-5--3-5--3-5--3-5--3-5--3-5-|
E|-----5---------5---------5---------5---------5---------5---------5----|

E|----------------------------------------------------------------------|
B|----------------------------------------------------------------------|
G|----------------------------------------------------------------------|
D|----------------------------------------------------------------------|
A|--------------------------3-2--3-2--3-2--3-2--------------------------|
E|-3-5-m0-3-5--3-5-m0-3-5-------3---------3-----3-5-m0-3-5--3-5-m0-3-5--|

___________________________________________________________________________________

Chorus
Play once.

Finger pick with thumb and index finger.
E|----15-----------|----15-----------|----15-----------| Play each for times.
B|----------13-----|-----------------|-----------------|
G|-----------------|----------15-----|----------14-----|
D|-----------------|-----------------|-----------------|
A|-15----15--------|-13----13--------|-12----12--------|
E|-----------------|-----------------|-----------------|

Finger pick with thumb, index, and middle finger.
E|----8--7-----8--7-----5--3-----8--7-----8--7-----5--3-----8--7-----8--7|
B|----10-8-----7--5-----7--5-----10-8-----10-8-----7--5-----10-8---------|
G|-----------------------------------------------------------------------|
D|-----------------------------------------------------------------------|
A|-----------------------------------------------------------------------|
E|-0--------0--------0--------0--------0--------0--------0-------0-------|

___________________________________________________________________________________

Verse 2
Play once.

Tremolo Pick, with delay and phaser?
E|-------------------------------------------------------------------------------------| x2
B|-10------8------5---8--5-8-5-3------5--1-----10------8------5----8---5--3-----1------|
G|-------------------------------------------------------------------------------------|
D|-------------------------------------------------------------------------------------|
A|-------------------------------------------------------------------------------------|
E|-------------------------------------------------------------------------------------|

Palm mute, use pick.
E|----------------------------------------------------------------------|
B|----------------------------------------------------------------------|
G|----------------------------------------------------------------------|
D|----------------------------------------------------------------------|
A|-3-5--3-5--3-5--3-5--3-5--3-5--3-5--3-5--3-5--3-5--3-5--3-5--3-5--3-5-|
E|-----5---------5---------5---------5---------5---------5---------5----|

E|----------------------------------------------------------------------|
B|----------------------------------------------------------------------|
G|----------------------------------------------------------------------|
D|----------------------------------------------------------------------|
A|--------------------------3-2--3-2--3-2--3-2--------------------------|
E|-3-5-m0-3-5--3-5-m0-3-5-------3---------3-----3-5-m0-3-5--3-5-m0-3-5--|

Tremolo Pick, with delay and phaser?
E|-------------------------------------------------------------------------------------|
B|-10------8------5---8--5-8-5-3------5--1-----10------8------5----8---5--3-----1------|
G|-------------------------------------------------------------------------------------|
D|-------------------------------------------------------------------------------------|
A|-------------------------------------------------------------------------------------|
E|-------------------------------------------------------------------------------------|

E|------------------------------------------|
B|-10------12-----13----12--15-------17-----|
G|------------------------------------------|
D|------------------------------------------|
A|------------------------------------------|
E|------------------------------------------|

___________________________________________________________________________________

Coda
Play Once.

Finger pick with thumb and index finger.
E|----15--------------15--------------15-----------------15--------|
B|----------13--------------13--------------13--------13----13-----|
G|-----------------------------------------------------------------|
D|-----------------------------------------------------------------|
A|-15----15--------15----15--------15----15--------15--------------|
E|-----------------------------------------------------------------|

E|----15--------------15--------------15-----------------15--------|
B|----------------------------------------------------13----13-----|
G|----------15--------------15--------------15---------------------|
D|-----------------------------------------------------------------|
A|-13----13--------13----13--------13----13--------13--------------|
E|-----------------------------------------------------------------|

E|----15-----------------15-----------15-----------------15--------|
B|-----------------------------------------------------------------|
G|----------14--------14----14--------------14--------14----14-----|
D|-----------------------------------------------------------------|
A|-12----12--------12----12--------12----12--------12--------------|
E|-----------------------------------------------------------------|

Finger pick with thumb, index and middle finger.
E|----8--7-----8--7-----5--3-----8--7-----8--7-----5--3-----8--7-----8--7|
B|----10-8-----7--5-----7--5-----10-8-----10-8-----7--5-----10-8-----7--5|
G|-----------------------------------------------------------------------|
D|-----------------------------------------------------------------------|
A|-----------------------------------------------------------------------|
E|-0--------0--------0--------0--------0--------0--------0-------0-------|

Finger pick with thumb and index finger.
E|----15--------------15--------------15-----------------15--------|
B|----------13--------------13--------------13--------13----13-----|
G|-----------------------------------------------------------------|
D|-----------------------------------------------------------------|
A|-15----15--------15----15--------15----15--------15--------------|
E|-----------------------------------------------------------------|

E|----15--------------15--------------15-----------------15--------|
B|----------------------------------------------------13----13-----|
G|----------15--------------15--------------15---------------------|
D|-----------------------------------------------------------------|
A|-13----13--------13----13--------13----13--------13--------------|
E|-----------------------------------------------------------------|

E|----15-----------------15-----------15-----------------15--------|
B|-----------------------------------------------------------------|
G|----------14--------14----14--------------14--------14----14-----|
D|-----------------------------------------------------------------|
A|-12----12--------12----12--------12----12--------12--------------|
E|-----------------------------------------------------------------|

Finger pick with thumb, index and middle finger.
E|---20-19----20-19----17-15----14-12-----8--7-----5--3-----8--7-----8--7-|
B|------------21-20----19-17----15-13-----10-8-----7--5-----10-8-----7--5-|
G|------------------------------------------------------------------------|
D|------------------------------------------------------------------------|
A|------------------------------------------------------------------------|
E|-0--------0--------0--------0--------0--------0--------0--------0-------|

Finger pick with thumb and index finger.
E|-------15-----------15-----------------15-----------15-----------|
B|----13----13--------------13--------13--------------------13-----|
G|-----------------------------------------------------------------|
D|-----------------------------------------------------------------|
A|-15--------------15--------------15--------------15----15--------|
E|-----------------------------------------------------------------|

E|----15--------------15--------------15-----------------15--------|
B|----------------------------------------------------13----13-----|
G|----------15--------------15--------------15---------------------|
D|-----------------------------------------------------------------|
A|-13----13--------13----13--------13----13--------13--------------|
E|-----------------------------------------------------------------|

E|----15--------------15--------------15---------------15----------|
B|-----------------------------------------------------------------|
G|----------14-----------14p12---------------14-----------14p12----|
D|-----------------------------------------------------------------|
A|-12----12--------12--------------12----12--------12--------------|
E|-----------------------------------------------------------------|

Finger pick with thumb, index and middle finger.
E|---20-19----20-19----17-15----14-12-----10-8-----8--7-----5--3-----3--8-----7--8-|
B|------------21-20----19-17----15-13-----12-10----10-8-----7--5-----5--10----5--10|
G|---------------------------------------------------------------------------------|
D|---------------------------------------------------------------------------------|
A|---------------------------------------------------------------------------------|
E|-0--------0--------0--------0--------0--------0--------0--------0--------0-------|

E|----8--7-----5s3------8s7------8--7-----8--7-----5--3--|
B|----7--5-----7s5------7s5------10-8-----10-8-----7--5--|
G|-------------------------------------------------------|
D|-------------------------------------------------------|
A|-------------------------------------------------------|
E|-0--------0--------0--------0--------0--------0--------|

E|--------------------|
B|----5----5----------|
G|--------------------|
D|--------------------|
A|----7----7----------|
E|-0----000-----0--0--|
Tap to rate this tab
 
# A B C D E F G H I J K L M N O P Q R S T U V W X Y Z