Song name
# A B C D E F G H I J K L M N O P Q R S T U V W X Y Z

Radiohead - There There tab

There There--Radiohead

Tuning: DBDGBE


Intro:


   1  &  2  &  3  &  4  &   1  &  2  &  3  &  4  &
E|------------------------|-------------2--0-----2-|
B|----------------------0-|------------------------|
G|-------2--------2-------|----2-------------------|
D|------------------------|------------------------|
B|-0-----------0-----0----|-------0----------------|
D|------------------------|------------------------|

   1  &  2  &  3  &  4  &   1  &  2  &  3  &  4  &
E|------------------------|-------------2--0-------|
B|-------------------0----|-------------------0----|
G|-------------2----------|----2-------------------|
D|------------------------|------------------------|
B|-------0----------------|-------0--------------0-|
D|------------------------|------------------------|

   1  &  2  &  3  &  4  &   1  &  2  &  3  &  4  &
E|-0--2-------------------|-------------2--0-----2-|
B|-------0-----------0----|------------------------|
G|-------------2----------|----2-------------------|
D|------------------------|------------------------|
B|------------------------|-------0----------------|
D|------------------------|------------------------|

   1  &  2  &  3  &  4  &   1  &  2  &  3  &  4  &
E|------------------------|----------0--2----------|
B|----------------------0-|----------------------0-|
G|-------2--------2-------|----2-------------------|
D|------------------------|------------------------|
B|-------------0----------|-------0----------------|
D|------------------------|------------------------|


Verse: Play Twice

   1  &  2  &  3  &  4  &   1  &  2  &  3  &  4  &
E|------------------------|------------------------|
B|-0-----0--0--0-----0--0-|----0--0-----0--0--0--0-|
G|-2-----2--2--2-----2--2-|----2--2-----2--2--2--2-|
D|-x-----x--x--x-----x--x-|----x--x-----x--x--x--x-|
B|-0-----0--0--0-----0--0-|----0--0-----0--0--0--0-|
D|-x-----x--x--x-----x--x-|----x--x-----x--x--x--x-|

               In    pitch        dark...

               Broken             Branches


   1  &  2  &  3  &  4  &   1  &  2  &  3  &  4  &
E|------------------------|------------------------|
B|-0-----0--0--0-----0--0-|----0--0-----0--0--0--0-|
G|-2-----2--2--2-----2--2-|----2--2-----2--2--2--2-|
D|-x-----x--x--x-----x--x-|----x--x-----x--x--x--x-|
B|-0-----0--0--0-----0--0-|----0--0-----0--0--0--0-|
D|-x-----x--x--x-----x--x-|----x--x-----x--x--x--x-|

                     ..walking   in    your   land-

                     Trip  me     as    I


   1  &  2  &  3  &  4  &   1  &  2  &  3  &  4  &
E|------------------------|------------------------|
B|------------------------|----------------0--0----|
G|-4-----4--4-----4--4--2-|----2--2--0-----0--0----|
D|-0-----0--0-----0--0--0-|----0--0--2-----2--2s4--|
B|-x-----x--x-----x--x--x-|----x--x--x-----x--x----|
D|-5-----5--5-----5--5--4-|----4--4--2-----2--2s4--|

  -scape

  speak


   1  &  2  &  3  &  4  &   1  &  2  &  3  &  4  &
E|------------------------|------------------------|
B|------------------------|----------------0--0----|
G|-4-----4--4-----4--4--2-|----2--2--0-----0--0----|
D|-0-----0--0-----0--0--0-|----0--0--2-----2--2s4--|
B|-x-----x--x-----x--x--x-|----x--x--x-----x--x----|
D|-5-----5--5-----5--5--4-|----4--4--2-----2--2s4--|


Chorus:


   1  &  2  &  3  &  4  &   1  &  2  &  3  &  4  &
E|------------------------|------------------------|
B|------------------------|------------------------|
G|-6-----6--------6-----6-|-------6--------6--6--6-|
D|-7-----7--------7-----7-|-------7--------7--7--7-|
B|-x-----x--------x-----x-|-------x--------x--x--x-|
D|-7-----7--------7-----7-|-------7--------7--7--7-|

                  Just  cause        you...


 1  &  2  &  3  &  4  &   1  &  2  &  3  &  4  &
E|------------------------|------------------------|
B|------------------------|------------------------|
G|-6-----6--------6--6----|-7--7-----6-----6--6--6-|
D|-0-----0--------0--0----|-0--0-----0-----0--0--0-|
B|-x-----x--------x--x----|-x--x-----x-----x--x--x-|
D|-4-----4--------4--4----|-4--4-----4-----4--4--4-|

                      ...Doesn't  mean  it's     there


   1  &  2  &  3  &  4  &   1  &  2  &  3  &  4  &
E|------------------------|------------------------|
B|------------------------|----------------0--0----|
G|-4-----4--4-----4--4--2-|----2--2--0-----0--0----|
D|-0-----0--0-----0--0--0-|----0--0--2-----2--2s4--|
B|-x-----x--x-----x--x--x-|----x--x--x-----x--x----|
D|-5-----5--5-----5--5--4-|----4--4--2-----2--2s4--|

   1  &  2  &  3  &  4  &   1  &  2  &  3  &  4  &
E|------------------------|------------------------|
B|------------------------|----------------0--0----|
G|-4-----4--4-----4--4--2-|----2--2--0-----0--0----|
D|-0-----0--0-----0--0--0-|----0--0--2-----2--2s4--|
B|-x-----x--x-----x--x--x-|----x--x--x-----x--x----|
D|-5-----5--5-----5--5--4-|----4--4--2-----2--2s4--|


Verse & Chorus are played again.

Outro: Played twice without the vocals, once at the beginning and once prior to the 
Accidents section. Repeat until the end.

   1  &  2  &  3  &  4  &   1  &  2  &  3  &  4  &
E|------------------------|------------------------|
B|------------------------|------------------------|
G|------------------------|------------------------|
D|-------7--------7-----7-|-------7-----7--9--7----|
B|-------7--------7-----7-|-------7-----7--9--7----|
D|-9--------9--9-----9----|----9-----9-------------|

   Why     so...

   Heaven

   We      Are


   1  &  2  &  3  &  4  &   1  &  2  &  3  &  4  &
E|------------------------|------------------------|
B|------------------------|------------------------|
G|------------------------|------------------------|
D|-------7--------7-----7-|-------7-----7--9--7----|
B|-------7--------7-----7-|-------7-----7--9--7----|
D|-9--------9--9-----9----|----9-----9-------------|

   Green?

   Sent you

   Accidents


   1  &  2  &  3  &  4  &   1  &  2  &  3  &  4  &
E|------------------------|------------------------|
B|------------------------|------------------------|
G|------------------------|------------------------|
D|-------10-------10----10|-------10----10-12-10---|
B|-------10-------10----10|-------10----10-12-10---|
D|-12-------12-12----12---|----12----12------------|

   Lonely

   To  me

   Waiting


   1  &  2  &  3  &  4  &   1  &  2  &  3  &  4  &
E|------------------------|------------------------|
B|------------------------|------------------------|
G|------------------------|------------------------|
D|-------5--------5-----5-|-------5-----5--7--5----|
B|-------5--------5-----5-|-------5-----5--7--5----|
D|-7--------7--7-----7----|----7-----7-------------|

  Lonely

  To me

  Waiting


   1  &  2  &  3  &  4  &   1  &  2  &  3  &  4  &
E|------------------------|------------------------|
B|------------------------|------------------------|
G|-0-----0-----0--0-----0-|-------0-----0--0-----0-|
D|-2-----2-----0--2-----4-|-------2-----0--2-----4-|
B|-x-----x-----0--x-----x-|-------x-----0--x-----x-|
D|-2-----2-----0--2-----4-|-------2-----0--2-----4-|

   Lonely

   To   me

   To Happen


   1  &  2  &  3  &  4  &   1  &  2  &  3  &  4  &
E|------------------------|------------------------|
B|------------------------|------------------------|
G|-------0-----0--0-------|------------------------|
D|-------2-----0--2-------|------------------------|
B|-------x-----0--x-------|------------------------|
D|-------2-----0--2-------|------------------------|
Tap to rate this tab
# A B C D E F G H I J K L M N O P Q R S T U V W X Y Z