Song name
# A B C D E F G H I J K L M N O P Q R S T U V W X Y Z

Radiohead - Pulkpull Revolving Doors tab

        -----------------------------------------------------------------------------
                      Pulk/Pull Revolving Doors - Radiohead
-----------------------------------------------------------------------------

Tuning: ZQBNLM

e|---3--------8--------------1----4------5------------------------------172-|
B|--------------------7-----------17--------6------------------------0------|
G|--------------12--------2-------5------------6----------------------------|
D|----------5---------------------67--------------34---------------9--------|
A|--------------------------------1-------------------25--------------------|
E|-------2------------------------2-----------------------77777777----------|

e|----4-----------------1---3-----------------------6-----------------------|
B|----------------------5-------5---------------5-------8-------------------|
G|---------3------------2-----------6---36---2-------------42---------------|
D|----------------------52------------------------------------79-----3------|
A|------------7---------97---------------------------------------58----5----|
E|------------------6---128----------------------------------------------287|

After 27 years of non stop listening to the masterpiece, "Pulk/Pull Revolving Doors", by 
Radiohead, I have finally figured out the exact notes needed to play the entire song.
Tap to rate this tab
# A B C D E F G H I J K L M N O P Q R S T U V W X Y Z