Song name
# A B C D E F G H I J K L M N O P Q R S T U V W X Y Z

Radiohead - Hunting Bears tab

e|-------------------------------|
B|-------1h3---------1h3p1-------|
G|---0h2---------0h2---------2---|
D|-0-----------0-----------0---0-|
A|-------------------------------|
E|-------------------------------|


e|-----5---------5-------------3h5------------------------------------------|
B|--5--6------3--5-------3-3h5h6---------------10-------10-------------1h3--|
G|--------------------------------------------10--------9---------2p0h2-----|
D|-----------------------------------------0--------0---------0-------------|
A|--------------------------------------------------------------------------|
E|--------------------------------------------------------------------------|
Tap to rate this tab
# A B C D E F G H I J K L M N O P Q R S T U V W X Y Z