Song name
# A B C D E F G H I J K L M N O P Q R S T U V W X Y Z

Radiohead - Reckoner tab

RECKONER
Radiohead
In Rainbows (2007)


Tuning: Standard (EADGBe)

Chords:               Chords can be played alongside tab, or just in its stead.

C           x35x5x
Em          x79x8x
D           x57x7x
Dsus4       x57x8x
A           x02220
G#mb6       466450    - Use thumb for 6th string
Em/G        322000
Am          x02210
Cmaj7       x32000
B7/D#       xx1202
B           x2444x
Em7         022030
Cmaj7add13  x32200
Asus2/B     x22200



(Bracketed notes are optional)

Intro:

    C                                        Em
e|----------------------------------------|----------------------------------------|
B|-----5-------5-------5-------5-------3--|-/---8-------8-------8-------8-------7--|
G|----------------------------------------|----------------------------------------|
D|----------------------------------------|----------------------------------------|
A|--3-------3-------3-------3-------3-----|-/7-------7-------7-------7-------7-----|
E|----------------------------------------|----------------------------------------|

    D                                        C
e|----------------------------------------|-------------------------------------5--|
B|-\---7-------7-------7-------7-------7--|-\---5-------5-------5-------5------(5)-|
G|----------------------------------------|----------------------------------------|
D|----------------------------------------|----------------------------------------|
A|-\5-------5-------5-------5-------5-----|-\3-------3-------3-------3-------3-----|
E|----------------------------------------|----------------------------------------|

    Em
e|----------------------------------------|
B|-/---8-------8-------8-------8-------3--|
G|----------------------------------------|
D|----------------------------------------|
A|-/7-------7-------7-------7-------7-----|
E|----------------------------------------|

    C                                         Em
e||-----------------------------------------|----------------------------------------|
B||o-\---5-------5-------5-------5-------3--|-/---8-------8-------8-------8-------7--|
G||-----------------------------------------|----------------------------------------|
D||--\---5-------5-------5-------5------(5)-|-/---9-------9-------9-------9------(9)-|
A||o-\3-------3-------3-------3-------3-----|-/7-------7-------7-------7-------7-----|
E||-----------------------------------------|----------------------------------------|

    D                             Dsus4 D     C
e|-----------------------------------------|-------------------------------------5--|
B|------7-------7-------7-------7b8--r--7--|-/---5-------5-------5-------5------(5)-|
G|-----------------------------------------|----------------------------------------|
D|--\---7-------7-------7-------7-------7--|-/---5-------5-------5-------5------(5)-|
A|--\5-------5-------5-------5-------5-----|-/3-------3-------3-------3-------3-----|
E|-----------------------------------------|----------------------------------------|

    Em                                     (repeat once)
e|-----------------------------------------||
B|-/---8-------8-------8-------8-------7--o||
G|-----------------------------------------||
D|-/---9-------9-------9-------9------(9)--||
A|-/7-------7-------7-------7-------7-----o||
E|-----------------------------------------||



Verse 1:

     C
                                       Re-
e|----------------------------------------|
B|-\---5-------5-------5-------5-------3--|
G|----------------------------------------|
D|-\---5-------5-------5-------5------(5)-|
A|-\3-------3-------3-------3-------3-----|
E|----------------------------------------|


    Em
                                 -eckone-
e|----------------------------------------|
B|-/---8-------8-------8-------8-------7--|
G|----------------------------------------|
D|-/---9-------9-------9-------9------(9)-|
A|-/7-------7-------7-------7-------7-----|
E|----------------------------------------|


     D                            Dsus4 D

e|-----------------------------------------|
B|------7-------7-------7-------7b8--r--7--|
G|-----------------------------------------|
D|--\---7-------7-------7-------7-------7--|
A|--\5-------5-------5-------5-------5-----|
E|-----------------------------------------|
        
                                                
     C
                                       
e|-------------------------------------5--|
B|-\---5-------5-------5-------5------(5)-|
G|----------------------------------------|
D|-\---5-------5-------5-------5------(5)-|
A|-\3-------3-------3-------3-------3-----|
E|----------------------------------------|


    Em
                      -er
e|-----------------------------------------|
B|-/---8-------8-------8-------8-------7---|
G|-----------------------------------------|
D|-/---9-------9-------9-------9------(9)--|
A|-/7-------7-------7-------7-------7------|
E|-----------------------------------------|


     C
                                   You ca-
e|----------------------------------------|
B|-\---5-------5-------5-------5-------3--|
G|----------------------------------------|
D|-\---5-------5-------5-------5------(5)-|
A|-\3-------3-------3-------3-------3-----|
E|----------------------------------------|


    Em
              -an't ta-   -ake it      wi-
e|----------------------------------------|
B|-/---8-------8-------8-------8-------7--|
G|----------------------------------------|
D|-/---9-------9-------9-------9------(9)-|
A|-/7-------7-------7-------7-------7-----|
E|----------------------------------------|


     D                            Dsus4 D
                                   -ith ye-
e|-----------------------------------------|
B|------7-------7-------7-------7b8--r--7--|
G|-----------------------------------------|
D|--\---7-------7-------7-------7-------7--|
A|--\5-------5-------5-------5-------5-----|
E|-----------------------------------------|


     C
                                       
e|----------------------------------------|
B|-\---5-------5-------5-------5-------5--|
G|----------------------------------------|
D|-\---5-------5-------5-------5-------5--|
A|-\3-------3-------3-------3-------3-----|
E|----------------------------------------|


    Em
                      -er
e|-----------------------------------------|
B|-/---8-------8-------8-------8-------7---|
G|-----------------------------------------|
D|-/---9-------9-------9-------9------(9)--|
A|-/7-------7-------7-------7-------7------|
E|-----------------------------------------|


     C
                                       Da-
e|----------------------------------------|
B|-\---5-------5-------5-------5-------3--|
G|----------------------------------------|
D|-\---5-------5-------5-------5------(5)-|
A|-\3-------3-------3-------3-------3-----|
E|----------------------------------------|


    Em
                              -ancing  fo-
e|----------------------------------------|
B|-/---8-------8-------8-------8-------7--|
G|----------------------------------------|
D|-/---9-------9-------9-------9------(9)-|
A|-/7-------7-------7-------7-------7-----|
E|----------------------------------------|


     D                            Dsus4 D
                                  -or your plea-
e|--------------------------------------------|
B|------7-------7-------7-------7b8---r----7--|
G|--------------------------------------------|
D|--\---7-------7-------7-------7----------7--|
A|--\5-------5-------5-------5--------5-------|
E|--------------------------------------------|


     C
                                      -asu-
e|-------------------------------------5--|
B|-\---5-------5-------5-------5------(5)-|
G|----------------------------------------|
D|-\---5-------5-------5-------5------(5)-|
A|-\3-------3-------3-------3-------3-----|
E|----------------------------------------|


    Em
                      -ure
e|-----------------------------------------|
B|-/---8-------8-------8-------8-------7---|
G|-----------------------------------------|
D|-/---9-------9-------9-------9------(9)--|
A|-/7-------7-------7-------7-------7------|
E|-----------------------------------------|


     C

e|----------------------------------------|
B|-\---5-------5-------5-------5-------3--|
G|----------------------------------------|
D|-\---5-------5-------5-------5------(5)-|
A|-\3-------3-------3-------3-------3-----|
E|----------------------------------------|


    Em                                       D

e|----------------------------------------|-----------------------------------------|
B|-/8~--8~------8~------8~------8~--------|-\7~--10~------10~-----10~-----10~-------|
G|--9~------------------------------------|-\7~-------------------------------------|
D|-/9~------------------------------------|-\7~-------0~------0~------0~------------|
A|-/7~------7~------7~------7~------------|-\5~-------------------------------------|
E|----------------------------------------|-----------------------------------------|


    A                                        C
                                                                               You-
e|----------------------------------------|-----------------------------------------|
B|-\2~--10~------10~-----10~-----10~------|-/5~--5~------5~------5~------5~---------|
G|-\2~------------------------------------|-/5~-------------------------------------|
D|-\2~------------------------------------|-/5~-------------------------------------|
A|-\0~-------0~------0~------0~-----------|-/3~------3~------3~------3~-------------|
E|----------------------------------------|-----------------------------------------|



Verse 2:

     Em
                              -u  are no-
e|----------------------------------------|
B|-/(8~)--8~------8~------8~------8~------|
G|-/(9~)----------------------------------|
D|-/(9~)----------------------------------|
A|-/-7--------7~------7~------7~------(7~)|
E|----------------------------------------|


     D
                                    -ot to bla-
e|-----------------------------------------|
B|-\(7~)--7~------7~------7b8---r----7~----|
G|-\(7~)-----------------------------------|
D|-\(7~)-----------------------------------|
A|-\-5~-------5~------5~--------5~-----(5~)|
E|-----------------------------------------|


     C
                                 -ame   fo-
e|--------------------------------------5--|
B|-\(5~)--5~------5~------5~------5~-------|
G|-\(5~)-----------------------------------|
D|-\(5~)-----------------------------------|
A|-\-3~-------3~------3~------3~-----------|
E|-----------------------------------------|


     Em
                             -or
e|----------------------------------------|
B|-/(8~)--8~------8~------8~------8~------|
G|-/(9~)----------------------------------|
D|-/(9~)----------------------------------|
A|-/-7--------7~------7~------7~------(7~)|
E|----------------------------------------|


     C
                                       bi-
e|-----------------------------------------|
B|-\(5~)--5~------5~------5~------5~-------|
G|-\(5~)-----------------------------------|
D|-\(5~)-----------------------------------|
A|-\-3~-------3~------3~------3~-----------|
E|-----------------------------------------|


     Em
                                 -itterswe-
e|----------------------------------------|
B|-/(8~)--8~------8~------8~------8~------|
G|-/(9~)----------------------------------|
D|-/(9~)----------------------------------|
A|-/-7--------7~------7~------7~------(7~)|
E|----------------------------------------|


     D
                                    -et distra-
e|-----------------------------------------|
B|-\(7~)--7~------7~------7b8---r----7~----|
G|-\(7~)-----------------------------------|
D|-\(7~)-----------------------------------|
A|-\-5~-------5~------5~--------5~-----(5~)|
E|-----------------------------------------|


     C
                                       -acto-
e|--------------------------------------5--|
B|-\(5~)--5~------5~------5~------5~-------|
G|-\(5~)-----------------------------------|
D|-\(5~)-----------------------------------|
A|-\-3~-------3~------3~------3~-----------|
E|-----------------------------------------|


     Em
                                        -or
e|----------------------------------------|
B|-/(8~)--8~------8~------8~------8~------|
G|-/(9~)----------------------------------|
D|-/(9~)----------------------------------|
A|-/-7--------7~------7~------7~------(7~)|
E|----------------------------------------|


     C
                                       da-
e|-----------------------------------------|
B|-\(5~)--5~------5~------5~------5~-------|
G|-\(5~)-----------------------------------|
D|-\(5~)-----------------------------------|
A|-\-3~-------3~------3~------3~-----------|
E|-----------------------------------------|


     Em
                             -are not spea-
e|----------------------------------------|
B|-/(8~)--8~------8~------8~------8~------|
G|-/(9~)----------------------------------|
D|-/(9~)----------------------------------|
A|-/-7--------7~------7~------7~------(7~)|
E|----------------------------------------|


     D
                                    -ak its na-
e|-----------------------------------------|
B|-\(7~)--7~------7~------7b8---r----7~----|
G|-\(7~)-----------------------------------|
D|-\(7~)-----------------------------------|
A|-\-5~-------5~------5~--------5~-----(5~)|
E|-----------------------------------------|


     C

e|--------------------------------------5--|
B|-\(5~)--5~------5~------5~------5~-------|
G|-\(5~)-----------------------------------|
D|-\(5~)-----------------------------------|
A|-\-3~-------3~------3~------3~-----------|
E|-----------------------------------------|


     Em
                    -ame
e|----------------------------------------|
B|-/(8~)--8~------8~------8~------8~------|
G|-/(9~)----------------------------------|
D|-/(9~)----------------------------------|
A|-/-7--------7~------7~------7~------(7~)|
E|----------------------------------------|


     C
                                       de-
e|-----------------------------------------|
B|-\(5~)--5~------5~------5~------5~-------|
G|-\(5~)-----------------------------------|
D|-\(5~)-----------------------------------|
A|-\-3~-------3~------3~------3~-----------|
E|-----------------------------------------|


     Em
                               -edi-  -ica-
e|----------------------------------------|
B|-/(8~)--8~------8~------8~------8~------|
G|-/(9~)----------------------------------|
D|-/(9~)----------------------------------|
A|-/-7--------7~------7~------7~------(7~)|
E|----------------------------------------|


     D
                         -ated          to a-
e|-----------------------------------------|
B|-\(7~)--7~------7~------7b8---r----7~----|
G|-\(7~)-----------------------------------|
D|-\(7~)-----------------------------------|
A|-\-5~-------5~------5~--------5~-----(5~)|
E|-----------------------------------------|


     C
                                 -all hu-
e|-----------------------------------------|
B|-\(5~)--5~------5~------5~------5~-------|
G|-\(5~)-----------------------------------|
D|-\(5~)-----------------------------------|
A|-\-3~-------3~------3~------3~-----------|
E|-----------------------------------------|


     Em
                             -u...     a-
e|----------------------------------------|
B|-/(8~)--8~------8~------8~------8~------|
G|-/(9~)----------------------------------|
D|-/(9~)----------------------------------|
A|-/-7--------7~------7~------7~------(7~)|
E|----------------------------------------|

     C
                                 -all hu-
e|-----------------------------------------|
B|-\(5~)--5~------5~------5~------5~-------|
G|-\(5~)-----------------------------------|
D|-\(5~)-----------------------------------|
A|-\-3~-------3~------3~------3~-----------|
E|-----------------------------------------|


     Em
                                 -uman bei-
e|----------------------------------------|
B|-/(8~)--8~------8~------8~------8~------|
G|-/(9~)----------------------------------|
D|-/(9~)----------------------------------|
A|-/-7--------7~------7~------7~------(7~)|
E|----------------------------------------|


     D

e|-----------------------------------------|
B|-\(7~)-10~------10~-----10--------10~----|
G|-\(7~)-----------------------------------|
D|-\(7~)------0~-------0~-------0~---------|
A|-\-5~------------------------------------|
E|-----------------------------------------|


     A

e|-----------------------------------------|
B|-\(2~)-10~------10~-----10--------10~----|
G|-\(2~)-----------------------------------|
D|-\(2~)-----------------------------------|
A|-\-0~-------0~-------0~-------0~---------|
E|-----------------------------------------|



Bridge:

    G#mb6                         Em/G
           -ings                                  Becau-
e|--0~~~~~~~~~~~~~~|~~---------|--0~~~~~~~~~~~|~~-------|
B|--5~~~~~~~~~~~~~~|~~---------|--0~~~~~~~~~~~|~~-------|
G|--4~~~~~~~~~~~~~~|~~(rest)---|--0~~~~~~~~~~~|~~(rest)-|
D|--6~~~~~~~~~~~~~~|~~---------|--2~~~~~~~~~~~|~~-------|
A|--6~~~~~~~~~~~~~~|~~---------|--2~~~~~~~~~~~|~~-------|
E|--4~~~~~~~~~~~~~~|~~---------|--3~~~~~~~~~~~|~~-------|


     Am                     Cmaj7
               -use we se-                  -epara-
e|--x0---0---0---0---0---|--00---0---0---0---0---|
B|--x1---1---1---1---1---|--00---0---0---0---0---|
G|--x2---2---2---2---2---|--00---0---0---0---0---|
D|--x2---2---2---2---2---|--22---2---2---2---2---|
A|--x0---0---0---0---0---|--33---3---3---3---3---|
E|-----------------------|-----------------------|


    B7/D#                  B7/D#
            -ate like       ri- -ipples on    a bla-
e|--22---2---2---2---2---|--22---2------2---2---2---|
B|--00---0---0---0---0---|--00---0------0---0---0---|
G|--22---2---2---2---2---|--22---2------2---2---2---|
D|--11---1---1---1---1---|--11---1------1---1---1---|
A|-----------------------|--------------------------|
E|-----------------------|--------------------------|


    Cmaj7                   Am
                                          -ank sho-
e|--00---0---0---0---0---|--00---0---0---0---0---|
B|--00---0---0---0---0---|--11---1---1---1---1---|
G|--00---0---0---0---0---|--22---2---2---2---2---|
D|--22---2---2---2---2---|--22---2---2---2---2---|
A|--33---3---3---3---3---|--00---0---0---0---0---|
E|-----------------------|-----------------------|


    B                       B
                                      -ore
e|-----------------------|-----------------------|
B|--44---4---4---4---4---|--44---4---4---4---4---|
G|--44---4---4---4---4---|--44---4---4---4---4---|
D|--44---4---4---4---4---|--44---4---4---4---4---|
A|--22---2---2---2---2---|--22---2---2---2---2---|
E|-----------------------|-----------------------|


    G#mb6                   G#mb6
                                      
e|--00---0---0---0---0---|--00---0---0---0---0---|
B|--55---5---5---5---5---|--55---5---5---5---5---|
G|--44---4---4---4---4---|--44---4---4---4---4---|
D|--66---6---6---6---6---|--66---6---6---6---6---|
A|--66---6---6---6---6---|--66---6---6---6---6---|
E|--44---4---4---4---4---|--44---4---4---4---4---|

    Em/G                    Em/G
                                               Becau-
e|--00---0---0---0---0---|--00---0---0---0---0---|
B|--00---0---0---0---0---|--00---0---0---0---0---|
G|--00---0---0---0---0---|--00---0---0---0---0---|
D|--22---2---2---2---2---|--22---2---2---2---2---|
A|--22---2---2---2---2---|--22---2---2---2---2---|
E|--33---3---3---3---3---|--33---3---3---3---3---|


     Am                     Cmaj7
               -use we se-                  -epara-
e|--x0---0---0---0---0---|--00---0---0---0---0---|
B|--x1---1---1---1---1---|--00---0---0---0---0---|
G|--x2---2---2---2---2---|--00---0---0---0---0---|
D|--x2---2---2---2---2---|--22---2---2---2---2---|
A|--x0---0---0---0---0---|--33---3---3---3---3---|
E|-----------------------|-----------------------|


    B7/D#                  B7/D#
            -ate like       ri- -ipples on    a bla-
e|--22---2---2---2---2---|--22---2------2---2---2---|
B|--00---0---0---0---0---|--00---0------0---0---0---|
G|--22---2---2---2---2---|--22---2------2---2---2---|
D|--11---1---1---1---1---|--11---1------1---1---1---|
A|-----------------------|--------------------------|
E|-----------------------|--------------------------|


    Cmaj7                   Am
                                          -ank sho-
e|--00---0---0---0---0---|--00---0---0---0---0---|
B|--00---0---0---0---0---|--11---1---1---1---1---|
G|--00---0---0---0---0---|--22---2---2---2---2---|
D|--22---2---2---2---2---|--22---2---2---2---2---|
A|--33---3---3---3---3---|--00---0---0---0---0---|
E|-----------------------|-----------------------|


    B                       B
                                   -ore  Oh~~~
e|-----------------------|-----------------------|
B|--44---4---4---4---4---|--44---4---4---4---4---|
G|--44---4---4---4---4---|--44---4---4---4---4---|
D|--44---4---4---4---4---|--44---4---4---4---4---|
A|--22---2---2---2---2---|--22---2---2---2---2---|
E|-----------------------|-----------------------|



Verse 3:

     C
                                       Re-
e|----------------------------------------|
B|-\---5-------5-------5-------5-------3--|
G|----------------------------------------|
D|-\---5-------5-------5-------5------(5)-|
A|-\3-------3-------3-------3-------3-----|
E|----------------------------------------|


    Em
                                 -eckone-
e|----------------------------------------|
B|-/---8-------8-------8-------8-------7--|
G|----------------------------------------|
D|-/---9-------9-------9-------9------(9)-|
A|-/7-------7-------7-------7-------7-----|
E|----------------------------------------|


     D                            Dsus4 D

e|-----------------------------------------|
B|------7-------7-------7-------7b8--r--7--|
G|-----------------------------------------|
D|--\---7-------7-------7-------7-------7--|
A|--\5-------5-------5-------5-------5-----|
E|-----------------------------------------|
        
                                                
     C
                                      -er
e|-------------------------------------5--|
B|-\---5-------5-------5-------5------(5)-|
G|----------------------------------------|
D|-\---5-------5-------5-------5------(5)-|
A|-\3-------3-------3-------3-------3-----|
E|----------------------------------------|


    Em
                      
e|-----------------------------------------|
B|-/---8-------8-------8-------8-------7---|
G|-----------------------------------------|
D|-/---9-------9-------9-------9------(9)--|
A|-/7-------7-------7-------7-------7------|
E|-----------------------------------------|


     C
                                       ta-
e|----------------------------------------|
B|-\---5-------5-------5-------5-------3--|
G|----------------------------------------|
D|-\---5-------5-------5-------5------(5)-|
A|-\3-------3-------3-------3-------3-----|
E|----------------------------------------|


    Em
                      -ake     me      wi-
e|----------------------------------------|
B|-/---8-------8-------8-------8-------7--|
G|----------------------------------------|
D|-/---9-------9-------9-------9------(9)-|
A|-/7-------7-------7-------7-------7-----|
E|----------------------------------------|


     D
                                  -ith  ye-
e|-----------------------------------------|
B|-\(7~)--7~------7~------7b8---r----7~----|
G|-\(7~)-----------------------------------|
D|-\(7~)-----------------------------------|
A|-\-5~-------5~------5~--------5~-----(5~)|
E|-----------------------------------------|


     C

e|-----------------------------------------|
B|-\(5~)--5~------5~------5~------5~-------|
G|-\(5~)-----------------------------------|
D|-\(5~)-----------------------------------|
A|-\-3~-------3~------3~------3~-----------|
E|-----------------------------------------|


     Em
                                       -er
e|----------------------------------------|
B|-/(8~)--8~------8~------8~------8~------|
G|-/(9~)----------------------------------|
D|-/(9~)----------------------------------|
A|-/-7--------7~------7~------7~------(7~)|
E|----------------------------------------|


     C
                                        De-
e|-----------------------------------------|
B|-\(5~)--5~------5~------5~------5~-------|
G|-\(5~)-----------------------------------|
D|-\(5~)-----------------------------------|
A|-\-3~-------3~------3~------3~-----------|
E|-----------------------------------------|


     Em
                                 -edica-
e|----------------------------------------|
B|-/(8~)--8~------8~------8~------8~------|
G|-/(9~)----------------------------------|
D|-/(9~)----------------------------------|
A|-/-7--------7~------7~------7~------(7~)|
E|----------------------------------------|


     D
                          -ated      to  a-
e|-----------------------------------------|
B|-\(7~)--7~------7~------7b8---r----7~----|
G|-\(7~)-----------------------------------|
D|-\(7~)-----------------------------------|
A|-\-5~-------5~------5~--------5~-----(5~)|
E|-----------------------------------------|


     C
                                 -all hu-
e|-----------------------------------------|
B|-\(5~)--5~------5~------5~------5~-------|
G|-\(5~)-----------------------------------|
D|-\(5~)-----------------------------------|
A|-\-3~-------3~------3~------3~-----------|
E|-----------------------------------------|


     Em
                                 -u... a-
e|----------------------------------------|
B|-/(8~)--8~------8~------8~------8~------|
G|-/(9~)----------------------------------|
D|-/(9~)----------------------------------|
A|-/-7--------7~------7~------7~------(7~)|
E|----------------------------------------|

     C
                                 -all hu-
e|-----------------------------------------|
B|-\(5~)--5~------5~------5~------5~-------|
G|-\(5~)-----------------------------------|
D|-\(5~)-----------------------------------|
A|-\-3~-------3~------3~------3~-----------|
E|-----------------------------------------|


     Em
                             -uman    be-
e|----------------------------------------|
B|-/(8~)--8~------8~------8~------8~------|
G|-/(9~)----------------------------------|
D|-/(9~)----------------------------------|
A|-/-7--------7~------7~------7~------(7~)|
E|----------------------------------------|


     D
                                    -ei-
e|-----------------------------------------|
B|-\(7~)-10~------10~-----10--------10~----|
G|-\(7~)-----------------------------------|
D|-\(7~)------0~-------0~-------0~---------|
A|-\-5~------------------------------------|
E|-----------------------------------------|


     A
                                   -ings
e|-----------------------------------------|
B|-\(2~)-10~------10~-----10--------10~----|
G|-\(2~)-----------------------------------|
D|-\(2~)-----------------------------------|
A|-\-0~-------0~-------0~-------0~---------|
E|-----------------------------------------|



Outro:

     Em7                         Em7
                                
e|----------------------------|---------------------------------|
B|--0------------0------------|--0------------0-----------------|
G|--7---7--------7---7-x---7--|--7---7--------7---7-x---7-------|
D|--7---9--------7---9-x---9--|--7---9--------7---9-x---9-------|
A|-----10-----------10-x--10--|-----10-----------10-x--10-------|
E|-----------0-------------0--|-----------0---------------0-----|


    Cmaj7add13                   Cmaj7add13          Asus2/B
                                
e|--0---0--0--0----0--0----0---|--0--0---0---0--0----0----------|
B|--x---0--0--0x---0--0----x---|--0--0x--x---0--0----0----------|
G|--2---2--2--2----2--2----2---|--2--2---2---2--2----2----------|
D|--2---2--2--2----2--2----2---|--2--2---2---2--2----2----------|
A|--3---3--3--3----3--3----3---|--3--3---3---3--3----2----------|
E|-----------------------------|--------------------------------|

Repeat outro as needed, fade out
Tap to rate this tab
# A B C D E F G H I J K L M N O P Q R S T U V W X Y Z