Song name
# A B C D E F G H I J K L M N O P Q R S T U V W X Y Z

Radiohead - Bloom tab

-------------------------------------------------------------------------------
                             Bloom - Radiohead
-------------------------------------------------------------------------------
Tabbed by: @mike_venusaur I do tons of covers on instagram and original songs!
E-mail: mikev423@gmail.com

Thom's parts - he has a long delay, about 6 beats within the song, on my memory man I 
switch to the 3 second delay and tap it in, then have my repeats long as well.

e|---------------------------------------------------------------------------|
B|--17--15--13h15p13---------------------------------------------------------|
G|--------------------16--14-------------------------------------------------|
D|---------------------------------------------------------------------------|
A|---------------------------------------------------------------------------|
E|---------------------------------------------------------------------------|

Let that opening riff fade into the main verse, which is below. He also switches rhythms 
and starts with the 7 occasionally.

e|--------------------------|------------------------------------------------|
B|--------------------------|------------------------------------------------|
G|--9--7--9--7--9--7--9--7--|--7--9--7--9--7--9--7--9------------------------|
D|--------------------------|------------------------------------------------|
A|--------------------------|------------------------------------------------|
E|--------------------------|------------------------------------------------|

'Chorus' Octave Up
x4
e|---------------------------------------------------------------------------|
B|--17--15--17--15--17--15------15-------------------------------------------|
G|--------------------------17-----------------------------------------------|
D|---------------------------------------------------------------------------|
A|---------------------------------------------------------------------------|
E|---------------------------------------------------------------------------|

x4
e|--15--17--15--17-----------------------------------------------------------|
B|--15------15------17--15--17--15-------------------------------------------|
G|---------------------------------------------------------------------------|
D|---------------------------------------------------------------------------|
A|---------------------------------------------------------------------------|
E|---------------------------------------------------------------------------|

Ed's parts require a slap back delay throughout, at a moderate repeat level.

Opening
You're going to bar the 10th fret and pluck the first note with your middle finger, then 
strum the chord with your thumb.
e|---------------------------------------------------------------------------|
B|--10--10------10--10------10--10-----10--10--------------------------------|
G|------12----------12----------12---------12--------------------------------|
D|------12----------12----------12---------12--------------------------------|
A|------10----------10----------10---------10--------------------------------|
E|------10----------10----------10---------10--------------------------------|

e|---------------------------------------------------------------------------|
B|---------------------------------------------------------------------------|
G|---------------------------------------------------------------------------|
D|---------------------------------------------------------------------------|
A|---------------------------------------------------------------------------|
E|--15--15------15--15------15--15-----15--15--------------------------------|

Bass line enters
e|---------------------------------------------------------------------------|
B|---------------------------------------------------------------------------|
G|--10--10------10--10------10--10-----10--10--------------------------------|
D|--10--10------10--10------10--10-----10--10--------------------------------|
A|---------------------------------------------------------------------------|
E|---------------------------------------------------------------------------|

'Solo'
e|---------------------------------------------------------------------------|
B|---------------------------------------------------------------------------|
G|--14----19--17--16----12--14--10---9----7--5--4---2------------------------|
D|---------------------------------------------------------------------------|
A|---------------------------------------------------------------------------|
E|---------------------------------------------------------------------------|

e|---------------------------------7--8--10--12--13~-------------------------|
B|--------------------------8--10--------------------------------------------|
G|--2-4-5-7-9-10~------------------------------------------------------------|
D|---------------------------------------------------------------------------|
A|---------------------------------------------------------------------------|
E|---------------------------------------------------------------------------|

Last verse
e|---------------------------------------------------------------------------|
B|-----------------------8---8------8---8------------------------------------|
G|--10--10-----10--10----10--10-----10--10-----------------------------------|
D|--10--10-----10--10----10--10-----10--10-----------------------------------|
A|---------------------------------------------------------------------------|
E|---------------------------------------------------------------------------|

e|---------------------------------------------------------------------------|
B|--15-----------------------------------------------------------------------|
G|-------14--16--17--16--14--------------------------------------------------|
D|---------------------------------------------------------------------------|
A|---------------------------------------------------------------------------|
E|---------------------------------------------------------------------------|
Tap to rate this tab
# A B C D E F G H I J K L M N O P Q R S T U V W X Y Z