Song name
# A B C D E F G H I J K L M N O P Q R S T U V W X Y Z

Radiohead - Nude tab

-------------------------------------------------------------------------------
			     NUDE - Radiohead
-------------------------------------------------------------------------------
Tabbed by: goodman
E-mail: gooddman7

Inspired by MojoPinocle - www.youtube.com/watch?v=7_pFlP3kqoE

Tuning: EBGDAE

E|-------4-----------4-----------4-----------4-----------5-----------0-----|
B|-----4---4-------4---4-------4---4-------4---4-------5---5-------0---0---|
G|---4-------4---4-------4---5-------5---5-------5---6-------6---1-------1-|
D|-------------------------------------------------------------------------|
A|-------------------------------------------------------------------------|
E|-4-----------4-----------4-----------4-----------5-----------0-----------|

E|-------9-----------9-----------7-----------7-----|
B|-----9---9-------9---9-------7---7-------7---7---|
G|---9-------9---9-------9---8-------8---8-------8-|
D|-------------------------------------------------|
A|-------------------------------------------------|
E|-9-----------9-----------7-----------7-----------|

E|----------2-0--------------2-0-------------7-0-------------7-0------|
B|-----4---4----4------4----4----4-----5----5----5-----5----5----5----|
G|--------4-------4------4-4-------4-----6-6-------6-----6-6-------6--|    X2
D|--------------------------------------------------------------------|
A|-----------------------------------0---------------0----------------|
E|--4---------------4-------------------------------------------------|


E|----------7-0-------------9-7----------------------------|
B|----9----9----9-----9----9----9-7-5-----5-----5-----5----|
G|------9-9-------9-----9-9-----------6-----6-----6--------|
D|---------------------------------------------------------|
A|--------------------------------------0-----0-----0------|
E|--9---------------9--------------------------------------|


E|----------------9--------------------------9------|
B|-----------9---------9----------------9---------9-|
G|------9-------------------9------9----------------|
D|---11---11---11---11---11-----11---11---11---11---|
A|--------------------------------------------------|
E|-9--------------------------9---------------------|


E|-------------7---------------------7---------|
B|---------7-------7-------------7-------7-----|
G|-----8---------------8-----8---------------8-|
D|---9---9---9---9---9-----9---9---9---9---9---|
A|---------------------------------------------|
E|-7---------------------7---------------------|


E|-------4-4-------------4-4-------------4-4--------------4-4-----|
B|------4----4----------4----4----------4----4-------4---4----4---|
G|---5-5-------5-----5-5-------5-------5-------5--------5-------5-|
D|---6-------------------------------6----------------------------|
A|----------------------------------------------------------------|
E|-4---------------4---------------4---------------4--------------|


E|---------5-------------------------0------------------|
B|-------------5-------5-----0-----------0--------------|
G|-----6-----------6-------------1-----------1-----9----|
D|---7---7---7---7---7-----2---2---2---2---2-------11---|
A|-------------------------------------------------11---|
E|-5---------------------0-------------------------9----|


E|----------2-0--------------2-0-------------7-0-------------7-0------|
B|-----4---4----4------4----4----4-----5----5----5-----5----5----5----|
G|--------4-------4------4-4-------4-----6-6-------6-----6-6-------6--|    X2
D|--------------------------------------------------------------------|
A|-----------------------------------0---------------0----------------|
E|--4---------------4-------------------------------------------------|


E|----------7-7-------------9-7-------------------------0---|
B|----9----9----9-----9----9----9-7-5-----5-----5-----5---5-|
G|------9-9-------9-----9-9-----------6-----6-----6---------|
D|----------------------------------------------------------|
A|--------------------------------------0-----0-----0-------|
E|--9---------------9---------------------------------------|


E|-------------0---------------------------|
B|---------0-------0-------------0---1-----|
G|-----1---------------1-----1-----------2-|  X2
D|---2---2---2---2---2-----2---2-------2---|
A|---------------------------------0-------|
E|-0---------------------0-----------------|

************************************

| /   slide up
| \   slide down
| h   hammer-on
| p   pull-off
| ~   vibrato
| +   harmonic
| x   Mute note
| b   Bend
| pb  Pre-bend
| br  Bend release
| pbr Pre-bend release
| brb Bend release bend

************************************
Tap to rate this tab
# A B C D E F G H I J K L M N O P Q R S T U V W X Y Z