Song name
# A B C D E F G H I J K L M N O P Q R S T U V W X Y Z

Radiohead - Identikit tab

-------------------------------------------------------------------------------
			     Identikit - Radiohead
-------------------------------------------------------------------------------
Tabbed by: @mike_venusaur i do covers and original songs on instagram!
E-mail: mikev423@gmail.com


Ed's Parts
He's likely using his Deluxe Memory Man to get slight modulation and delay. Slight volume swells.
Riff is used in the beginning of the song, synth breakdown, and outro
e|-----/8~-----8~-----8~----8/3-----3~-----3~-----3~-----3~--/---------------|
B|---------------------------------------------------------------------------|
G|---------------------------------------------------------------------------|
D|---------------------------------------------------------------------------|
A|---------------------------------------------------------------------------|
E|---------------------------------------------------------------------------|

Swell in, lots of vibrato
"Broken hearts make it rain"
e|---------------------------------------------------------------------------|
B|-----11b~vvvv------11b~vvvv------11b~vvvv------11b~vvvv--------------------|
G|---------------------------------------------------------------------------|
D|---------------------------------------------------------------------------|
A|---------------------------------------------------------------------------|
E|---------------------------------------------------------------------------|

Jonny's Parts
Not necessary, but fun to play with slap back delay on this part so I'll just write out the chords 
assuming the delay is on.
e|---------------------------------------------------------------------------|
B|---------------------------------------------------------------------------|
G|----4-----4-----4-----4-----4-----4-----4-----4-----4-----4-----4-----4----|
D|----4-----4-----4-----4-----4-----4-----4-----4-----4-----4-----4-----4----|
A|----2-----2-----0-----0-----x-----x-----x-----x-----x-----x-----x-----x----|
E|----------------------------3-----3-----2-----2-----0-----0-----0-----0----|

e|-------------------------------------------------------------------------------|
B|-------------------------------------------------------------------------------|
G|----4-----4-----4-----4-----4-----4-----4-----4-----12-----12-----12-----12----|
D|----4-----4-----4-----4-----4-----4-----4-----4------9------9------9------9----|
A|----2-----2-----0-----0-----x-----x-----x-----x------9------9------9------9----|
E|----------------------------3-----3-----2-----2--------------------------------|

e|---------------------------------------------------------------------------|
B|---------------------------------------------------------------------------|
G|----4-----4-----4-----4-----4-----4-----4-----4----------------------------|
D|----4-----4-----4-----4-----4-----4-----4-----4----------------------------|
A|----2-----2-----2-----2-----2-----2-----2-----2----------------------------|
E|---------------------------------------------------------------------------|

e|---------------------------------------------------------------------------------------------|
B|---------------------------------------------------------------------------------------------|
G|-------------------------------------------------------------8------8-------8---5h8---6/5----|
D|---------------3------3--------------3-----3-------------------------------------------------|
A|-------------------------------------------------6----6--6------6------6---------------------|
E|----1----1--1-----1-------1----1--1-----1----------------------------------------------------|

e|---------------------------------------------------------------------------------------------|
B|---------------------------------------------------------------------------------------------|
G|---------------6-----6---------------6-----6-----------------5-----5--------8---5h8---6/5----|
D|---------------------------------------------------------------------------------------------|
A|----4----4--4-----4-------4----4--4-----4--------3----3--3------3------3---------------------|
E|---------------------------------------------------------------------------------------------|

The ending is improvised a bit from each live performance, sometimes adding in that slap back delay 
again briefly and turning it off real quick, leaving the trails of the delay (if you have an RE-20). 
Combine the previous riff with the version below and improvise, I included all variations of the 
notes in the chord.
e|--------------------------------------------------------------------------------------------------------|
B|--------------------------------------------------------------------------------------------------------|
G|------------------------------13---------13------13-------------------------------12---------12-----12--|
D|--------------15------15-----------------------------------------13-------13----------------------------|
A|--------------------------------------------------------------------------------------------------------|
E|--13---13-13-----13-------13------13-13------13------11---11-11------11-------11------11-11------11-----|

e|--------------------------------------------------------------------------------------------------------|
B|------------------------------------------------------------------------14-13--16--14-13--16--14-13h14--|
G|--------------------------10-------10-------------------------------------------------------------------|
D|------------11-----11------------------------------------10------10-------------------------------------|
A|--------------------------------------------------------------------------------------------------------|
E|--9---9--9-----9-------9-----9--9------9--9----8---8--8------8-------8----------------------------------|
Tap to rate this tab
 
# A B C D E F G H I J K L M N O P Q R S T U V W X Y Z