Song name
# A B C D E F G H I J K L M N O P Q R S T U V W X Y Z

Radiohead - My Iron Lung chords

Highlighted       Show chord diagrams
 
My Iron Lung
 
Intro: |--------------------------------|--------------------------------|
       |-----3-0-----0-------1----------|-----3-0-----0-------1---/----4-|
       |---0-------0---0---0---0-2^-2-0-|---0-------0---0---2-----/--5---|
       |---------3-------1--------------|---------3-------1------1/4-----|
       |--------------------------------|--------------------------------|
       |-3------------------------------|-3------------------------------|
 
      |--------------------------------|---------------------------------|
      |-----3-0-----0-------1-3^4-3-1--|-----3-0-----0-------1-----------|
      |---0-------0---0---0------------|---0-------0---0---0---0-2^3-2-0-|
      |---------3-------1--------------|---------3-------1---------------|
      |--------------------------------|---------------------------------|
      |-3------------------------------|-3-------------------------------|
 
G             Cm          G        Cm         G              Cm              G          Cm
Faith, you're driving me away, you do it everyday, you don't mean it, but it hurts like hell
  G          Cm            G       Cm         G            Cm               G    Cm
My brain says I'm receiving pain, a lack of oxygen, from my life support, my iron lung
 

 
We're too young to fall asleep, too cynical to speak, we are losing it, can't you tell
We scratch our eternal itch, a twentieth century bitch, and we are grateful for our iron lung
 
Bridge:|--------------------------------|---------------------------------|
       |-----3-0-----0-------1----------|-----3-0-----0--(8-7-6-5--4)-----|
       |---0-------0---0---0---0-2^-2-0-|---0-------0---0-3--x-x-x-2---2--|
       |---------3-------1--------------|---------3-------2--x-x-x-1---1--|
       |--------------------------------|-----------------4--x-x-x-3---3--|
       |-3------------------------------|-3-------------------------------|
 
Gm7 3x333x          C9 x3233x                  
The head shrinkers, they want everything       |
  E5b 0123xx     C#m6 x423xx Cm6 x312xx       | (2x)
My uncle Bill, my Belisha beacon              |
 

 
Suck, suck your teenage thumb, toilet trained and dumb, when the power runs out, we'll just hum
G     Cm              G          Cm            G            Cm                   
This, this is our new song, just like the last one, a total waste of time, my iron lung
 
Gm7 3x333x          C9 x3233x                  
The head shrinkers, they want everything       |
  E5b 0123xx     C#m6 x423xx Cm6 x312xx       | (2x)
My uncle Bill, my Belisha beacon              |
 
Solo: Gm7  C9  E5b  C#m6 Cm6  (2x)
 
Bb            C                      C#                      C
And if you're frightened, you can be frightened, you can be, it's OK
Bb            C                      C#                      
And if you're frightened, you can be frightened, you can be, it's OK
 
Solo: Gm7  C9  E5b  C#m6 Cm6  (2x)
 
Gm7 3x333x          C9 x3233x                  
The head shrinkers, they want everything       |
  E5b 0123xx     C#m6 x423xx Cm6 x312xx       | (2x)
My uncle Bill, my Belisha beacon              |
 
Tap to rate this tab
 
# A B C D E F G H I J K L M N O P Q R S T U V W X Y Z