Radiohead - There There tab

There There
 
Intro:|--------|-----0-2--|--------|-----2-0----|-0-2----------|-----2-0-2|--------|-----0-2----|
      |-------0|---------0|-------0|---------0--|-------0-----0|---------0|-------0|-----------0|
      |---2-2--|-2--------|---2----|-----------2|---------2----|-2--------|---2----|-2----------|
      |-0------|---0------|--------|-0----------|---------0----|---0------|-0------|---2--------|
      |-2------|---2------|-2---2--|---2--------|-----2-----2--|---2------|-2---2--|---0-----2--|
      |--------|----------|--------|------------|--------------|----------|--------|------------|
 
Verse:|---2---2-------------3---2-0--------------------------------------------------------|
      |-0-0---0---0---0-----0---0-0-------0----------------------------------------------0-|
      |-2-2---2---2---2-2---2---2-2---0---0----0-----2-------------4-----4---2-2---------0-| (2x)
      |-0---------0-0-0-0-0-0-0-----0-0--------0-0---0-0---2-2-0---5-----5-0-0-0-0-2-2-2-0-|
      |-2---2-----2-2---2-2-2-2-----2-0----------0-----0-2-2-2-0---5-5-5-5-0-----0-2-2-2-0-|
      |---------------------------------3---0------2-----0-0-0---3---0-0---0-2-----0-0-0---|
        In pitch dark I go walking in your landscape
        Broken branches trip me as I speak
 
Chorus:|---------------------------------------------------------------------------------------|
       |-0-0-0-0-0-0-----2-2-2---3-3-2---------------------------------------------------------|
       |-6-6-6-6-6-6-0-0-2-2-2---2-2-2---0---4---4-2-2-0---------0---4-----4-4-2-2-0---0---0-0-| (2x)
       |-7-7-7-7-7-7-0-0-0-0-0---0-0-0-0-0---5---5-0-0-0-2-2/4-4-0---5-----5-5-0-0-0-2-2-2/4-0-|
       |-7-7-7-7-7-7-0-0-----------------0-5-5-5-5-----0-2-------0-5-5-5-5-5-5-----0-2-------0-|
       |-5-5-5-5-5-5-----2-2---2-----2-2---3---0---2-----0---------3---0-0-----2-----0---------|
         Just because you feel it doesn’t mean it's there
         Just because you feel it doesn’t mean it's there
 

 

There's always a siren singing you to shipwreck (don't reach out)
Steer away from these rocks we'd be a walking disaster (don't reach out)
 

Just because you feel it doesn't mean it's there (there’s someone on your shoulder)
Just because you feel it doesn't mean it's there (there’s someone on your shoulder)
 
Bridge:|------------|------------|-------------|---------------(3x)|
       |------------|------------|-------------|---0-0-0-0-0-0-----|
       |-2-(4 bars)-|-5----------|-------------|---0-0-0-0-0-0-----|
       |-4----------|-7-(2 bars)-|-5-----------|---2-2-2-2-2-2/4---|
       |-2----------|-5----------|-7-(2 bars)--|---2-2-------------|
       |------------|------------|-5-----------|-0-0-0—----------0-|
         Feel it
 
|-----7-------7-------7-------7-------5-------5-------7-------7---7------7-------7-------7-------|
|---------------------------------------6-------5-----------------0--------0-------0---------0---|
|---7---7---7---7---7---7---7---7-----------------------5----------------------------------------| (2x)
|-----------------------------------7-------7-------7-------7---7------------------------------0-|
|---------------------------------5-------5-------0-------0------------7-------7-------7---7-----|
|-7-------7-------7-------7------------------------------------------0-------0-------0-----5-5-5-|
 Why so green_____________   and lonely,    and lonely,       and lonely
 Heaven sent____________ you to me,         to me,            to me
 
|---7-----7-----7-----------------------7--------------------------7---------------------7---7----7--|
|-----------------------------------------6--------------------------5--------------------0---0--0---|
|--7-7---7-7---7-7--------------------5---5---5----------------------5-------------------------------| (3x)
|-------------------------------------7---7---5-----------------7------------------------------------|
|---------------------7-7-7-7-7-6-5-5-5-----5---7-7-7-7-6-5-3-0---0----7-6-5-4-3-0-0-0--7---7---7----|
|-7---5h7---5h7---5h7------------------------------------------------------------------0---0---0---0-|
1.(no lyrics)
2.We   are   accidents              waiting                waiting               to happen
3.We   are   accidents               waiting                 waiting              to happen
 
Outro:|-5--------|
      |-0--------|
      |-7--let---|
      |-0--ring--|
      |----------|
      |-7--------|
 
Tap to rate this tab
 
# A B C D E F G H I J K L M N O P Q R S T U V W X Y Z