Song name
# A B C D E F G H I J K L M N O P Q R S T U V W X Y Z

Radiohead - Palo Alto tab

IF you put a tremolo pedal infront of an auto wah, and turn the rate on the tremolo from 
to slow and sturming a d chord on the guitar,
You can kind of get the same noise produced in the beggining,
a Mooger fooger ringmodulator would work too for some of the sounds.


 0:01  Verse
e|-2~---------------------------------------|
b|-3~----3-3--3--3-3------------------------|
g|-2~--0000000000000------------------------|
d|-----4445445444445------------------------|
a|------------------------------------------|
E|------------------------------------------|
	Not exact^^      Palm Muted-

Lead 0:27
e|---7~-7~-----------------------------------------------|
b|--6~--7~----7/8~-7~------------------------------------|
g|-7~---7~---5---------5---------------------------------|
d|----------7------------7-------------------------------|
a|-------------------------------------------------------|
E|-------------------------------------------------------|

Chorus
e|-------------5555555------------------|
b|---2222-2222-5555555-7787778----------|
g|-0-2222-2222-4454445-7777777----------|
d|-0-2222-2222-xxxxxxx-7777777----------|
a|-0-0000-0000-5555555-5555555----------|
E|-------------3333333------------------|

|------------55555555555555-------------|
b|-2222-2222-55555555555555-------------|
g|-2222-2222-44544454454445-------------|
d|-2222-2222-xxxxxxxxxxxxxx-------------|
a|-0000-0000-55555555555555-------------|
E|-----------33333333333333-------------|

Guitar2  1:00 Auto wah    1:16
e|-888888-----------------||-----7---0-----2-------|
b|------------------------||----6--1-1/3---3-------|
g|-------5/7-7/10~-10^11--||-5/7---0-0/2-2-2-------|
d|------------------------||-------------0---------|
a|------------------------||-----------------------|
E|------------------------||-----------------------|

Guitar 3 1:19
e|-----------------------------|
b|-----------------------------|
g|-14~/11~/7~-5~/7~-4~/10h11---|
d|-----------------------------|
a|-----------------------------|
E|-----------------------------|

Chorus


Bridge Just play a D to C power chords
and complete mute the string to get the "ch ch ch" sound

solo
e|-----------------------------------------|
b|-15^(16)-14-13-12-11-10-8-8Hp10----------|
g|-----------------------------------------|

e|-----------------------------------------|
b|-15-14^(15)-13-12-11-10-8-8Hp10----------|
g|-----------------------------------------|

e|-----------------------------------------|
b|-15-14-13-12-11-10-8-8Hp10---------------|
g|-----------------------------------------|


e|-----------------------------------------|
b|-15-14-13-12^(13)-11-10-8-8Hp10----------|
g|-----------------------------------------|

 Verse 2:11
e|-------------------------------------0----2---|
b|---10-----8-----12-----10-----8----1-1/3--3---|
g|-----------------------------------0-0/22-2---|
d|-12--12/10-10/12--12/12--12/10-10-------0-0---|
a|----------------------------------------------|
E|----------------------------------------------|

Verse 2:26
e|----------------------------------------|
b|---10-----8--12-----8----7--7^(8)7^(8)--|
g|----------------------------------------|
d|-12--12/10-12--12/10-10/7-7-------------|
a|----------------------------------------|
E|----------------------------------------|

Chorus

Outro

solo
e|-----------------------------------------|
b|-15^(16)-14-13-12-11-10-8-8Hp10----------|
g|-----------------------------------------|

e|-----------------------------------------|
b|-15-14^(15)-13-12-11-10-8-8Hp10----------|
g|-----------------------------------------|

e|-----------------------------------------|
b|-15-14-13-12-11-10-8-8Hp10---------------|
g|-----------------------------------------|


e|-----------------------------------------|
b|-15-14-13-12^(13)-11-10-8-8Hp10----------|
g|-----------------------------------------|
               X2
e|---------------------||------------------------|
b|-7h8p7h8p7h-5-3-5----||-5h4p5h4p5-5-3-5--------|
g|---------------------||------------------------|
d|---------------------||------------------------|
a|---------------------||------------------------|
E|---------------------||------------------------|

Last riff
e|---------------------2~--------------------|
b|-5h4p5h4p5-5-3-5-3---3~--------------------|
g|---------------------2~--------------------|
d|---------------------0~--------------------|
a|-------------------------------------------|
E|-------------------------------------------|
Tap to rate this tab
# A B C D E F G H I J K L M N O P Q R S T U V W X Y Z