Song name
# A B C D E F G H I J K L M N O P Q R S T U V W X Y Z

Radiohead - Hunting Bears tab

Help us improve GuitareTab! Take a short survey!
-------------------------------------------------------------------------------
			     hunting bears - radiohead
-------------------------------------------------------------------------------
Tabbed by: MapOfYourHead
Email: parofthequeue89@yahoo.com

Tuning:

things you should know:

. standard tuning
. all open strings should be left ringing for as long as possible.
. the "c" is a open D that is muted quite quickly after you pick it.
. the parts between the *-* are played quiet or with harmonics(your choice).
. the \-/ is when you rub your hand on the strings.

.and for some strange reason i think it might sound better if you get someone else
 to fingepick(pluck both at the same time) the high notes with the octave above on
 another guitar.



                               slur these 3 notes(between arrow and dots)
                                             ::
e|------------------\-/--------------------------\-/---------|
 |------------------\-/--------------------------\-/---------|
 |---------------7--\-/--------------7h9/4-5h7---\-/---------|
 |----5--5h7/10--0--\-/---5--5h7/10--0-----0--7--\-/---------|
 |---0--0-----------\-/---0--0----------------0--\-/---------|
E|------------------\-/--------------------------\-/---------|
                                             ^^
e|------------------\-/--------------------------\-/---------|
 |------------------\-/--------------------------\-/---------|
 |--------------7---\-/--------------7h9/4-5h7---\-/---------|
 |---5--5h7/10--0---\-/---5--5h7/10--0-----0--7--\-/---------|
 |---0--0-----------\-/---0--0----------------0--\-/---------|
E|------------------\-/--------------------------\-/---------|

e|------------*----------*-----------------------------------|
 |--------10----------10-------------------------------------|
 |---9-10--------9-10----------------------------------------|
 |---0--0--0---0-0--0--0-------------------------------------|
 |-----------------------------------------------------------|
E|------------*----------*-----------------------------------|


e|------------------------*-------*--------------------------|
 |-----------------------------------------------------------|
 |-----9-9h10-12-14--12----9-10-14-----9-10-14---------------|
 |-----0-0-----0--0---0----0-------c---0--------0------------|
 |-----------------------------------------------------------|
E|------------------------*-------*--------------------------|

e|------------------\-/--------------------------\-/---------|
 |------------------\-/--------------------------\-/---------|
 |---------------7--\-/--------------7h9/4-5h7---\-/---------|
 |----5--5h7/10--0--\-/---5--5h7/10--0-----0--7--\-/---------|
 |---0--0-----------\-/---0--0----------------0--\-/---------|
E|------------------\-/--------------------------\-/---------|

e|-----------------------------------------------------------|
 |-----------------------------------------------------------|
 |---------------7-------------------------------------------|
 |----5--5h7/10--0-------------------------------------------|
 |---0--0----------------------------------------------------|
E|-----------------------------------------------------------|

===============================================================================


Related for Hunting Bears tab