Song name
# A B C D E F G H I J K L M N O P Q R S T U V W X Y Z

Radiohead - Punchdrunk Lovesick Singalong tab

artist: radiohead
song: punchdrunk lovesick singalong
album: B-side
key:Fm
time signature: 4/4
transcriber: muse676

hey,

the notes with * above them are played using a bottleneck (slide)
if you don't have a bottleneck just slide it with your fingers

this is just the lead guitar

the chords are at the bottom. the rythmn guitar just plays the broken chords
with some variations

intro:
E-----------------------------------------|
B-----------------------------------------|
G-----------------------------------------|
D-3----------3---6----8--9----------------|
A-----------------------------------------|
E-----------------------------------------|

E-----------------------------------------|
B-----------------------------------------|
G-----------------------------------------|
D-3----1-----3---6----8--9----------------|
A-----------------------------------------|
E-----------------------------------------|

  *   *    *   *    *    *    *    *     *
E--------------------------------------------|
B-6-\-4----8-\-6----10-\-8----12-\-10----12--|
G--------------------------------------------|
D--------------------------------------------|
A--------------------------------------------|
E--------------------------------------------|

  *   *    *   *    *    *    *    *     *
E--------------------------------------------|
B-6-\-4----8-\-6----10-\-8----12-\-10----12--|
G--------------------------------------------|
D--------------------------------------------|
A--------------------------------------------|
E--------------------------------------------|

verse:
E---------------------------------|
B---------------------------------|
G---------------------------------|
D-3--------6------8-------10------|
A---------------------------------|
E---------------------------------|

E---------------------------------|
B---------------------------------|
G---------------------------------|
D-3-------------------------------|
A---------------------------------|
E---------------------------------|

pre-chorus:
E--------------------------------------------|
B-13-11-9----9----13-11-----9--11--9--11--12-|
G---------10---10----------------------------|
D--------------------------------------------|
A--------------------------------------------|
E--------------------------------------------|

chorus:
E-3-----------|
B-3-----------|
G-4-----------|
D-5-----------|
A-------------|
E-------------|

E---------------|
B---------------|
G-0----5----9---|
D---------------|
A---------------|
E---------------|

verse:
E-----------------------------------------|
B-----------------------------------------|
G-----------------------------------------|
D-3----------3---6----8--9----------------|
A-----------------------------------------|
E-----------------------------------------|

E---------------------------------|
B---------------------------------|
G---------------------------------|
D-3--------6------8-------10------|
A---------------------------------|
E---------------------------------|

E--7-\-5-\-3--|
B-------------|
G-------------|
D-------------|
A-------------|
E-------------|

E---------------------------------|
B---------------------------------|
G---------------------------------|
D-3--------6------8-------10------|
A---------------------------------|
E---------------------------------|

E-----------------------------------------|
B-----------------------------------------|
G-----------------------------------------|
D-3----------3---6----8--9----------------|
A-----------------------------------------|
E-----------------------------------------|

  *   *    *   *    *    *    *    *     *
E--------------------------------------------|
B-6-\-4----8-\-6----10-\-8----12-\-10----11--|
G--------------------------------------------|
D--------------------------------------------|
A--------------------------------------------|
E--------------------------------------------|

  *   *    *   *    *    *    *    *     *
E--------------------------------------------|
B-6-\-4----8-\-6----10-\-8----12-\-10----12--|
G--------------------------------------------|
D--------------------------------------------|
A--------------------------------------------|
E--------------------------------------------|

E-------------------------------|
B-3----5-----6------8--10-11-12-|
G-------------------------------|
D-------------------------------|
A-------------------------------|
E-------------------------------|

chorus:
E-3-----------|
B-3-----------|
G-4-----------|
D-5-----------|
A-------------|
E-------------|

E---------------|
B---------------|
G-0----5----9---|
D---------------|
A---------------|
E---------------|

E-----------------|
B-----------------|
G-----------------|
D-5-5-5-5-5-5-5-5-|
A-5-5-5-5-5-5-5-5-|
E-3-3-3-3-3-3-3-3-|

E-----------------|
B-----------------|
G-5-5-5-5-5-5-5-5-|
D-5-5-5-5-5-5-5-5-|
A-3-3-3-3-3-3-3-3-|
E-----------------|


chords:
Fm

Fm       Em        Fm        Em

Eb   Fm  G    A   Em

Eb   Fm  G    A   G

Fm                      Em
I WRAPPED YOU INSIDE MY COAT
     Fm                        C
WHEN THEY CAME TO FIREBOMB THE HOUSE
Fm
I DIDN'T FEEL PAIN
    Ab
COZ NO ONE CAN TOUCH ME
Fm                        C#    A#
NOW THAT I'M HELD IN YOUR SPELL

G
     beautiful girl
G
     beautiful girl
              C
can turn your world into dust

Fm                 Em
sell me a car that goes
Fm                   C
sell me a house that stands
Fm
i never cared before
Ab
i never cared before
Fm
i never cared before
Em
before before before

Eb   Fm  G    A   Em

Eb   Fm  G    A   Bm  A#

G
     beautiful girl
G
     beautiful girl
              C
can turn your world into dust

G
     beautiful girl
G
     beautiful girl
              C
can turn your world into dust

G       G

C       C

G       G

C       C


Fm                      Em
i stood in front of her face
Fm                        C
when the first bullet was shot

------------------------------------------------

its as good as i can get

i think its at least 90% right
Tap to rate this tab
 
# A B C D E F G H I J K L M N O P Q R S T U V W X Y Z