Guitaretab - guitar tabs
Song name
# A B C D E F G H I J K L M N O P Q R S T U V W X Y Z

Radiohead - Just Acoustic tab

Radiohead
"Just"

I came across this song and decided to tab it out. The other tabs "just" didn't sound
right to me. This is for the acoustic part of the song. Once you know these chords you'll
find this song easy to play. I hope someone finds this useful. Please give good rating.
Thanks!

Barred Chords 
/=slide
()=optional
    C   D#   D   F5   Am  A#  G#  G   F#  F
e|-(8)-(11)-(10)-(8)-(5)-(6)-(4)-(3)-(2)-(1)-|
B|--8---11---10---8---5---6---4---3---2---1--|
G|--9---12---11---10--5---7---5---4---3---2--|
D|--10--13---12---10--7---8---6---5---4---3--|
A|--10--13---12---8---7---8---6---5---4---3--|
E|--8---11---10---8---5---6---4---3---2---1--|

  (Riff 1)
e|-----------------------------|
B|-----------(10)---(11)-(13)--| <-(Note: sometimes the notes in 
G|-12--13--15------------------|     parenthesis' are harmonics.)
D|-----------------------------|
A|-----------------------------|
E|-----------------------------|


Intro:
    C          D#            D              F5
e|-----------------------------------------------------|
B|--8--8---x-x-11-11--11--x--10--10--x-x--x-8---8--8---|
G|--9--9---x-x-12-12--12--x--11--11--x-x--x-10--10-10--|
D|--10-10--x-x-13-13--13--x--12--12--x-x--x-10--10-10--|
A|--10-10--x-x-13-13--13--x--12--12--x-x--x-8---8--8---|
E|--8--8---x-x-11-11--11--x--10--10--x-x--x-8---8--8---|
    C          D#            D              F5  
e|-----------------------------------------------------|
B|--8--8---x-x-11-11--11--x--10--10--x-x--x-8---8--8---|
G|--9--9---x-x-12-12--12--x--11--11--x-x--x-10--10-10--|
D|--10-10--x-x-13-13--13--x--12--12--x-x--x-10--10-10--|
A|--10-10--x-x-13-13--13--x--12--12--x-x--x-8---8--8---|
E|--8--8---x-x-11-11--11--x--10--10--x-x--x-8---8--8---|

Am                        G#   
  Can't get the stink off   He's been hanging 'round 
[ Tab from: http://www.guitaretab.com/r/radiohead/61765.html ]
      (Riff 1)
   G#/D#          A#
e|-------------------x-6--|
B|-4-/-11-11 11/-x--6-6--| (slides are very important)
G|-5-/-12-12 12/-7--7-7--|
D|-6-/-13-13 13/-8--8-8--|
A|-6-/-13-13-13/-8--8-8--|
E|-4-/-11-11-11/-6--6-6--|
 for days

                                                     (Riff 1)
Am                   G#                              /D#   A#
  Comes like a comet   suckered you but not your friends
Am                        G#                          G    F#  F
  One day I'll get to you   and teach you how to be a ho - ly  cow
                 C        F#     F                   
You do it to yourself you do and that's what really hurts because you 
             C         F#   F
Do it to yourself just you  You and no one else
                 C/D#  D  F5 <-(like the intro)   C/D#  D  F5
You do it to yourself            You do it to yourself

                                                       (Riff 1)
Am                       G#                            /D#   A#
   Don't get my sympathy   Hangin' out the fifteenth floor
Am                                     G#            
   You've changed the locks three time   I still come reeling through 

      (Riff 1)
      /D#    A#  
the door

Am                        G#                            G   F#   F
  One day I'll get to you   and teach you how to get to pur-rest hell
                 C        F#     F                   
You do it to yourself you do and that's what really hurts because you 
             C         F#   F
Do it to yourself just you  You and no one else
                 C/D#  D  F5                      C/D#  D  F5
You do it to yourself            You do it to yourself

(Instrumental)
Am   G#   G  F#  F    Am   G#   G  F#  F

                 C        F#      F           
You do it to yourself you do  and that's what really hurts cause you do 
          C          F#    F
it to yourself  Just you   you and no one else

                C/D#  D   F5                    C/D#  D    F5 
You do it to your  -  self      You do it to your  -  self   Oh!

                C/D#  D   F5                    C/D#  D    F5 
             your              self...
Related for Just Acoustic tab