Song name
# A B C D E F G H I J K L M N O P Q R S T U V W X Y Z

Radiohead - Last Flowers tab

Tabbed by: Guillaume
Email: jeannn022000@yahoo.fr

Tuning: Standard

My first tab. Just repeat 4 times each figure except figure 2 which is only once. Great 
song! enjoy.

e|-8---------------------------------------------------------------------------|
B|------------9----------------------------------------------------------------|
G|-----10------------10--------------------------------------------------------|
D|-----------------------------------------------------------------------------|
A|-----------------------------------------------------------------------------|
E|-----------------------------------------------------------------------------|

e|--10-----------------------------------------------------------------------|
B|---------------------11----------------------------------------------------|
G|------------12---------------12--------------------------------------------|
D|---------------------------------------------------------------------------|
A|---------------------------------------------------------------------------|
E|---------------------------------------------------------------------------|

e|---12----------------------------------------------------------------------|
B|----------------------13---------------------------------------------------|
G|-------------14----------------14------------------------------------------|
D|---------------------------------------------------------------------------|
A|---------------------------------------------------------------------------|
E|---------------------------------------------------------------------------|

e|-12------------------------------------------------------------------------|
B|-----------------------13--------------------------------------------------|
G|-------------12-----------------12-----------------------------------------|
D|---------------------------------------------------------------------------|
A|---------------------------------------------------------------------------|
E|---------------------------------------------------------------------------|

e|-12------------------------------------------------------------------------|
B|------------------------12-------------------------------------------------|
G|-------------12------------------12----------------------------------------|
D|---------------------------------------------------------------------------|
A|---------------------------------------------------------------------------|
E|---------------------------------------------------------------------------|
Tap to rate this tab
# A B C D E F G H I J K L M N O P Q R S T U V W X Y Z