Song name
# A B C D E F G H I J K L M N O P Q R S T U V W X Y Z

Radiohead - There There Acoustic tab

This is how I play the song. It's not perfect but it sounds good on an acoustic as a
version of the song. I use a lot of single notes to complement the chords by using my
(pinky) finger on the high e string. Thus, I've tabbed the song out and then done a 
version below. Thanks go out to Barney whose tab I have used a reference. Enjoy!

Chords used:

A   (0-0-2-2-2-0)--|
Bm7  (x-2-0-2-0-2)-|
Em  (0-2-2-0-0-0)--|
F#m (2-4-4-2-2-2)--|
Gm  (3-5-5-3-3-3)--|

Intro Tab: (I find it easier to make a B7 shape and move my ring finger to create these 
e notes)

e|-------------0-2-------------2-0-0-2-----------2-0-2-----------0-2-------|
b|-------0---------0-----0-------------0---0---------------0---------0-----|
g|-2-2-2---2-----------2---2-------------2---2-----------2---2-------------|
d|-0---------0---------------0-----------------0---------------0-----------|
a|-------------------2-----------------------------------------------------|
E|-----------------------------------------------------2-------------------|

   in pitch dark   i go walk ing  in  your land  scape

e|-2-2-2-2-2-2-2-2-2-2-2-3----2----0---0----0------3-3-3-2-2-0-3-3-3-2-2-0-|
b|-0-0-0-0-0-0-0-0-0-0-0-0----0----0---3----0------3-3-3-2-2-0-3-3-3-2-2-0-|
g|-2-2-2-2-2-2-2-2-2-2-2-2----2----2---2----2------3-3-3-2-2-0-3-3-3-2-2-0-|
d|-0-0-0-0-0-0-0-0-0-0-0-0----0----0---0----0------5-5-5-4-4-2-5-5-5-4-4-2-|
a|-2-2-2-2-2-2-2-2-2-2-2-2----2----2---2----2------5-5-5-4-4-2-5-5-5-4-4-2-|
E|-------------------------------------------------------------------------|

   broken branches  trip me   as   i       speak

e|-2-2-2-2-2-2-2-2-2---3-3----2----0-------0--3-3-3-2-2-0-3-3-3-2-2-0-|
b|-0-0-0-0-0-0-0-0-0---0-0----0----0-------3--3-3-3-2-2-0-3-3-3-2-2-0-|
g|-2-2-2-2-2-2-2-2-2---2-2----2----2-------2--3-3-3-2-2-0-3-3-3-2-2-0-|
d|-0-0-0-0-0-0-0-0-0---0-0----0----0-------0--5-5-5-4-4-2-5-5-5-4-4-2-|
a|-2-2-2-2-2-2-2-2-2---2-2----2----2-------2--5-5-5-4-4-2-5-5-5-4-4-2-|
E|--------------------------------------------------------------------|

   just 'cause you feel it doesnt mean  its     there

e|-0-0-0-0-0-0-0-0-2-2-2-2--3p2----0-----2--------3-3-3-2-2-0-3-3-3-2-2-0-|
b|-2-2-2-2-2-2-2-2-3-3-3-3--3-3----3-----3--------3-3-3-2-2-0-3-3-3-2-2-0-|
g|-2-2-2-2-2-2-2-2-2-2-2-2--2-2----2-----2--------3-3-3-2-2-0-3-3-3-2-2-0-|
d|-2-2-2-2-2-2-2-2-0-0-0-0--0-0----0-----0--------5-5-5-4-4-2-5-5-5-4-4-2-|
a|-0-0-0-0-0-0-0-0-0-0-0-0--0-0----0-----0--------5-5-5-4-4-2-5-5-5-4-4-2-|
E|------------------------------------------------------------------------|

   just 'cause you feel it doesnt mean its  there

e|-0-0-0-0-0-0-0-0-2-2-2-2--2-2----0----------3-3-3-2-2-0-3-3-3-2-2-0-|
b|-2-2-2-2-2-2-2-2-3-3-3-3--3-3----2----------3-3-3-2-2-0-3-3-3-2-2-0-|
g|-2-2-2-2-2-2-2-2-2-2-2-2--2-2----2----2-----3-3-3-2-2-0-3-3-3-2-2-0-|
d|-2-2-2-2-2-2-2-2-0-0-0-0--0-0----0----------5-5-5-4-4-2-5-5-5-4-4-2-|
a|-0-0-0-0-0-0-0-0-0-0-0-0--0-0----0----------5-5-5-4-4-2-5-5-5-4-4-2-|
E|--------------------------------------------------------------------|

Repeat as above.

Chord version ( you really do need to play the add-ons I recommended or it doesn't sound 
but hey)

Bm7                                      Gm F#m Em Gm F#m Em
in pitch dark i go walking in your landscape.

Bm7                           Gm F#m Em Gm F#m Em

broken branches trip me as i speak.

A                 D       Dsus4 D Dsus2 Gm F#m Em Gm F#m Em

just 'cause you feel it doesnt mean its there.

A                 D       Dsus4 D Dsus2 Gm F#m Em Gm F#m Em

just 'cause you feel it doesnt mean its there.

Thanks - questions: jonnoturner@hotmail.com
Tap to rate this tab
# A B C D E F G H I J K L M N O P Q R S T U V W X Y Z