Song name
# A B C D E F G H I J K L M N O P Q R S T U V W X Y Z

Radiohead - A Wolf At The Door tab

-------------------------------------------------------------------------------
			     A wolf at the door - Radiohead
-------------------------------------------------------------------------------
Tabbed by: Matt Hoare
Email: matthoare@hotmail.com

Tuning: Std

	(1st Verse)
e|---5---5---3---3---0---0---|
B|---6---5---4---3---2---3---|
G|---7---7---3---3---2---2---|
D|---7---7---5---5---2---2---|
A|---5---5---5---5---0---0---|
E|-----------3---3-------3---|

	(Chorus)
e|--0---0---0---0---|
B|--3---3---2---3---|
G|--2---4---2---4---|
D|--0---0---0---0---|
A|-----(5)-----(5)--|
E|--2---3---2---3---|

	(Bridge)
e|---1---0--(1)--0---0---1---0--(1)--0---0---|
B|---3---3---3---1---2---3---3---3---1---2---|
G|---2---0---3---2---2---2---0---0---2---2---|
D|---0---2---3---2---2---0---2---3---2---2---|
A|-------3---1---0---0-------3---1---0---0---|
E|-------------------------------------------|

	(2nd verse)
e|---5---5---3---3---0---0---|
B|---6---5---4---3---2---3---|
G|---7---7---3---3---2---2---|
D|---7---7---5---5---2---2---|
A|---5---5---5---5---0---0---|
E|-----------3---3-------3---|



(Chorus)
e|--0---0---0---0---|
B|--3---3---2---3---|
G|--2---4---2---4---|
D|--0---0---0---0---|
A|-----(5)-----(5)--|
E|--2---3---2---3---|
Tap to rate this tab
# A B C D E F G H I J K L M N O P Q R S T U V W X Y Z