Song name
# A B C D E F G H I J K L M N O P Q R S T U V W X Y Z

Radiohead - Maquiladora tab

Hey people. I haven't seen e tab for the whole song, so here it is. I want to thank 
for the intro of the song.

Artist: Radiohead
Song: Maquiladora
Album: High & Dry EP[B-Side]
Tuning: EADGBe[Standard Tuning]

Guitar 1[Ed O'Brien] - Half Distortion
Guitar 2[Thom Yorke]- Clean Electric
Guitar 3[Jonny Greenwood] - Clean Electric, Reverb

INTRO[MAIN RIFF]
Guitars 1 & 2
e|---------------|------------------|
B|-0-----0-0----0|-0-0-0----0-0-0---|
G|-1-----1-1----1|-1-1-1----1-1-1---|
D|-2-----0-2----0|-2-2-2----0-2-0---|
A|-2-----0-2----0|-2-2-2----0-2-0---|
E|-0-------------|-0-0-0------------|  2x

After Playing The Intro, Jonny plays this:
Guitar 3 [Intro]
e|---------------|---------------|
B|---------------|---------------|
G|-8--9--9--8--9-|-8--9--8----8/7|
D|---------------|---------------|
A|---------------|---------------|
E|---------------|---------------|


VERSE[MAIN RIFF]
Guitar 1
The verse is the same as the intro, but play it muted.
x4


BREAK
Guitar 1 & 2
Start when Thom sings "Exploding gracefully..."
e|-4-4-4-4-4-4-|
B|-4-4-4-4-4-4-|
G|-4-4-4-4-4-4-|
D|-4-4-4-4-4-4-|
A|-2-2-2-2-2-2-|
E|-------------| 4x

Guitar 3
Listen To the Song For the Timing..
e|------------------------------|
B|------11/12-12-12-12-12-12-12/|
G|-9b11-------------------------|
D|------------------------------|
A|------------------------------|
E|------------------------------|


After Playing that part, they play the MAIN RIFF 2 TIMES.


This part here starts when Thom Sings "Grass is green...."

Guitar 2:       Palm Muted!!!
e|----------------------------------------------------------------|
B|-5-5-5-5-5-5-5-5-5-5-5-5-5-5-5-5-0-0-0-0-0-0-0-0-0-0-0-0-0-0-0-0|
G|-6-6-6-6-6-6-6-6-6-6-6-6-6-6-6-6-1-1-1-1-1-1-1-1-1-1-1-1-1-1-1-1|
D|-6-6-6-6-6-6-6-6-6-6-6-6-6-6-6-6-2-2-2-2-2-2-2-2-2-2-2-2-2-2-2-2|
A|-4-4-4-4-4-4-4-4-4-4-4-4-4-4-4-4-2-2-2-2-2-2-2-2-2-2-2-2-2-2-2-2|
E|----------------------------------------------------------------|2x

Guitar 3:
e|-----------------7p4p0------------------------------------------|
B|----------------------6-4---------------------------------------|
G|--------------------------6-4-----------------------------------|
D|------------------------------6---------------------------------|
A|----------------------------------------------------------------|
E|----------------------------------------------------------------|4x


BREAK 2

Guitar 2:
e|----------------------------------------------------------------|
B|-5-5-5-5-5-5-5-5-5-5-5-5-5-5-5-5-0-0-0-0-0-0-0-0-0-0-0-0-0-0-0-0|
G|-6-6-6-6-6-6-6-6-6-6-6-6-6-6-6-6-1-1-1-1-1-1-1-1-1-1-1-1-1-1-1-1|
D|-6-6-6-6-6-6-6-6-6-6-6-6-6-6-6-6-2-2-2-2-2-2-2-2-2-2-2-2-2-2-2-2|
A|-4-4-4-4-4-4-4-4-4-4-4-4-4-4-4-4-2-2-2-2-2-2-2-2-2-2-2-2-2-2-2-2|
E|----------------------------------------------------------------|

e|------------|
B|------------|
G|------------|
D|-11-11-11-11|
A|------------|
E|-9--9--9--9-|

Guitar 1:
e|----------------------------------------------------------------|
B|----------------------------------------------------------------|
G|-6-------8-------9-------16-------13----------------------------|
D|----------------------------------------------------------------|
A|-4-------6-------7-------14-------11----------------------------|
E|----------------------------------------------------------------|

e|------------|
B|------------|
G|-6--6--6--6-|
D|------------|
A|-4--4--4--4-|
E|------------|

After that part Jonny[Guitar 3] plays this:
Guitar 3:
e|-----0-------0-------0-------0-------0-------0-----|
B|---4---4---4---4---4---4---4---4---3---3---3---3---|
G|-6-------6-------6-------6-------5-------5-------5-|
D|---------------------------------------------------|
A|---------------------------------------------------|
E|---------------------------------------------------|

Guitar 1 & 2[They start when jonny ends his part...]
e|----------|
B|----------|
G|-12--11--9|
D|----------|
A|-10--9---7|
E|----------|

Than you just play the Main riff Again....

I think this is what's the songs like...Listen to the song for the timing.
Please rate and leave a comment;)
thank you, Koen..
Tap to rate this tab
 
# A B C D E F G H I J K L M N O P Q R S T U V W X Y Z