Song name
# A B C D E F G H I J K L M N O P Q R S T U V W X Y Z

Radiohead - Bangers N Mash tab

Help us improve GuitareTab! Take a short survey!
This is a tab of Jonny's part of Bangers & Mash.

Guitar Tuning: Drop A

Based on this performance of Bangers & Mash, Live from the Basement -
http://www.youtube.com/watch?v=2IQfn97KRFg

Thanks to warrenmusic from youtube who helped me figure it out with this video -
http://www.youtube.com/watch?v=8vxoa_Mrcyc

Tabbed by: Joe Hill




Jonny

Intro
e|--------------------------|
B|--------------------------|
G|--------------------------|
D|--------------/0-----5----|
A|--------------/0-------5--|
A|--10--12--10--/0----------|  x20

e|--------------------------------------|
B|--------------------------------------|
G|--------------------------------------|
D|--7--7--7-----------7--7--7-----------|
A|-----------5--7--x-----------5--7--x--|
A|--------------------------------------| x4

e|--------------------------------------|
B|--------------------------------------|
G|--------------------------------------|
D|--7--7--7-----------7--7--7-----------|
A|-----------5--7--0-----------5--7--0--|
A|-----------------0-----------------0--| x4

e|---------------------------------------------------------------------------|
B|---------------------------------------------------------------------------| 
G|-----------------------------------------------10--x--10--12---------------| 
D|--------------------3--3--5--------------------12--x--12--12---------------| 
A|--0--3--0--3--5--0--3--3--5--0--3--0--3--5--0------------------------------| 
A|--0--3--0--3--5--0-----------0--3--0--3--5--0------------------------------|

If you don't understand this bit, watch the
youtube video for the live performance and
listen to what Jonny does. The timing is
different for Jonny and the rest of the band 

e|---------------------------------------------------------------------------|
B|---------------------------------------------------------------------------|
G|-----------------------------------------------10--10--10-10-10-10---------|
D|--------------------3--3--5--------------------12--12--12b12b12b12b--------|
A|--0--3--0--3--5--0--3--3--5--0--3--0--3--5--0------------------------------|
A|--0--3--0--3--5--0-----------0--3--0--3--5--0------------------------------| x2

e|--------------------------------------|
B|--------------------------------------|
G|--------------------------------------|
D|--7--7--7-----------7--7--7-----------|
A|-----------5--7--x-----------5--7--x--|
A|--------------------------------------| x4

e|--------------------------------------|
B|--------------------------------------|
G|--------------------------------------|
D|--7--7--7-----------7--7--7-----------|
A|-----------5--7--0-----------5--7--0--|
A|-----------------0-----------------0--| x8

e|--5----6h8p6h8p6h8p6h8p6p5--5--|
B|-------------------------------|
G|-------------------------------|
D|-------------------------------|
A|-------------------------------|
A|-------------------------------| x8

e|-----------------------------------------------------------------------------|
B|-----------------------------------------------------------------------------|
G|--------12b----------------12b----------------12b------------------12b-------|
D|-------------12b----------------12b----------------12b------------------12b--|
A|-0--0--0------------0--0--0------------0--0--0------------0--0--0------------|
A|-0--0--0------------0--0--0------------0--0--0------------0--0--0------------| x3

e|---------------------------------------------------------------------------|
B|---------------------------------------------------------------------------|
G|-----------------------------------------------10--x--10--12---------------|
D|--------------------3--3--5--------------------12--x--12--12---------------|
A|--0--3--0--3--5--0--3--3--5--0--3--0--3--5--0------------------------------|
A|--0--3--0--3--5--0-----------0--3--0--3--5--0------------------------------| x4

e|--------------------------------------|
B|--------------------------------------|
G|--------------------------------------|
D|--7--7--7-----------7--7--7-----------|
A|-----------5--7--0-----------5--7--0--|
A|-----------------0-----------------0--| x2

e|--5----6h8p6h8p6h8p6h8p6p5--5--|
B|-------------------------------|
G|-------------------------------|
D|-------------------------------|
A|-------------------------------|
A|-------------------------------| x4

e|----------------|
B|--10------------|
G|--12b12b12b12b--|
D|----------------|
A|----------------|
A|----------------|
Related for Bangers N Mash tab