Song name
# A B C D E F G H I J K L M N O P Q R S T U V W X Y Z

Radiohead - Bishops Robes tab

Hey I was searching for this tab for a while and finaly found it on greenplastic.com
It's not the whole song and is lacking some of the slide, but it should give you a good 
and you can improvise a little.

 * RADIOHEAD - Bishop's Robes
 * Street Spirit CD1
 * Guitar tab by Adrian Morse 

      Em              Asus2             B7
E : ------------------------------------------------------------------|
B : ------------------------------------------------0-----------------|
G : --------0---------------2---------------2-----------2-------------|
D : ------------2---------2-----2---------------1-----------1---------|
A : ------2-------2---0-----------0---0^2---------2-----------0^2-0---|
E : --0---------------------------------------------------------------|

      1 & 2 & 3 & 4 & 1 & 2 & 3 & 4 & 1 & 2 & 3 & 4 & 1 & 2 & 3 & 4

The chorus goes something along the lines of


E : -----------------------------------------------------|
B : --------------8--8\6---6-----------------------------|
G : --------------0--0-0---0----?OR?----12-12\10---10----|
D : -----/9-------9--9\7---7-------------9--9\-7----7----|
A : ----/10------10-10\8---8------------10-10\-8----8----|
E : -----------------------------------------------------|


=======================================
    Guitar Archive at Planet Telex
 http://www.underworld.net/radiohead/
Max Kolombos 
---------------------------------------
Tap to rate this tab
# A B C D E F G H I J K L M N O P Q R S T U V W X Y Z