Song name
# A B C D E F G H I J K L M N O P Q R S T U V W X Y Z

Radja - Cinderella tab

Penyanyi/Band : RADJA
Judul Lagu    : Cinderella
Album         : Langkah Baru
Tabbed By     : bernad_satriani@yahoo.com

Buat yang mau ngasih kritik and saran, email aja ke alamat di atas

Intro tanpa rhytem
e|---------------------------------------------|
B|--12h13-13-13-13-13-12-----------------------|
G|--12----12-12-12-12-12-------2x--------------|
D|---------------------------------------------|
A|---------------------------------------------|
E|---------------------------------------------|

Intro 2x
e|---------------------------------------------|
B|---8-6-5------8-6-5------8-6-5---------------|
G|--5-----7-5--5-----7-5--5-----7-5------------|
D|---------------------------------------------|
A|---------------------------------------------|
E|---------------------------------------------|

e|---------------------------------------------|
B|---6----6---6----6---------------------------|
G|--5--5-5-5-5--5-5----------------------------|
D|---------------------------------------------|
A|---------------------------------------------|
E|---------------------------------------------|

solo 1
e|-----------------------------------------------------------|
B|-----------------------------------------------------------|
G|--1/5-5~-5/9-5-4~~-5/9-4-5~-5/9-4-/10-101010-999-777-555---|
D|-----------------------------------------------------------|
A|-----------------------------------------------------------|
E|-----------------------------------------------------------|

e|---------------------------------------------|
B|---------------------------------------------|
G|--/10-101010-999-101010-999-77-55------------|
D|---------------------------------------------|
A|---------------------------------------------|
E|---------------------------------------------|

e|--/8-88888-8/10-1010101010-10/12-12121212----|
B|---------------------------------------------|
G|---------------------------------------------|
D|---------------------------------------------|
A|---------------------------------------------|
E|---------------------------------------------|

e|--12/13-131313-151515-171717-191919-202020---|
B|---------------------------------------------|
G|---------------------------------------------|
D|---------------------------------------------|
A|---------------------------------------------|
E|---------------------------------------------|

e|--1919h2020~~--------------------------------|
B|---------------------------------------------|
G|---------------------------------------------|
D|---------------------------------------------|
A|---------------------------------------------|
E|---------------------------------------------|

solo 2 (solo 1 di naikkan 1 nada)
Tap to rate this tab
 
# A B C D E F G H I J K L M N O P Q R S T U V W X Y Z