Song name
# A B C D E F G H I J K L M N O P Q R S T U V W X Y Z

Radkey - Out Here In My Head tab

Out Here In My Head:
First tab I've ever made. Second tab for Radkey. Was inspired to make this after I saw that
Rick_Diculous had made one for Cat & Mouse. This song is tasty.

Intro/Chorus:

E|------------------------|------------------------|
B|------------------------|------------------------|
G|--2--2--2--2--5--5--5--5|------------------------|
D|--2--2--2--2--5--5--5--5|--3--3--3--3--5--5--5--5|
A|--0--0--0--0--3--3--3--3|--3--3--3--3--5--5--5--5|
E|------------------------|--1--1--1--1--3--3--3--3|

Verse:

E|------------------------|------------------|
B|------------------------|------------------|
G|--2--2--2--2--2--2--2--2|--2--2--2--2--2--4|
D|--2--2--2--2--2--2--2--2|--2--2--2--2--2--4|
A|--0--0--0--0--0--0--0--0|--0--0--0--0--0--2|
E|------------------------|------------------|

E|------------------------|------------------|
B|------------------------|------------------|
G|--5--5--5--5--5--5--5--4|--5--5--5--5--5---|
D|--5--5--5--5--5--5--5--4|--5--5--5--5--5--5|
A|--3--3--3--3--3--3--3--2|--3--3--3--3--3--5|
E|------------------------|-----------------3|

(Not going to try to do the solo, sorry)

Intro x4
Verse x4
Chorus x10
Verse x4
Chorus x10
Solo (Can play 2nd guitar, chorus x6 with solo)
Chorus x8
End on:
E|-----
B|-----
G|--2--
D|--2--
A|--0--
E|-----

Just as Rick_Diculous did on the Cat & Mouse tab, I'm also going to promote this great 
young band. Spread the word.
Website: http://radkey.net/

2014. SkaBoy13
Tap to rate this tab
 
# A B C D E F G H I J K L M N O P Q R S T U V W X Y Z