Song name
# A B C D E F G H I J K L M N O P Q R S T U V W X Y Z

Radwimps - Me Me She tab

Based on the music video with the walking people
Me Me She - RADWIMPS

Intro and Choruses (0:46 - 1:10)
-------12----14p12-------16p12--------14p12--------------|
----12-------------12----------12-----------12-----------|
-------------------------------------------------(x?)----|
-14------------------------------------------------------|
---------------------------------------------------------|
---------------------------------------------------------|

Intro Guitar 2
-----------------------------0-------0------------------------------------0----0-------------|
------0----------0---------------0----------------------0---------0--------------------------|
----2----------2-----------1---1---1---1-----(x3)-----2---------2-------4---4----------------|
---------------------------------------------------------------------------------------------|
--0----------2--------------------------------------0---------2-------4----------------------|
------------------------0--------------------------------------------------------------------|

---------------------------|
------0----------0---------|
----2----------2-----------|
---------------------------|
--0----------2-------------|
------------------------0--|

Verse 1 (1:12 - 1:28) Acoustic
Intro has similar, but without the last arpeggio
-----------------------------0-------0-----------------------------------------0-------0-----|
------0----------0---------------0----------------------0----------0---------------0---------|
----2---2------2---2-------1---1---1---1--------------2---2------2---2-------1---1---1---1---|
---------------------------------------------------------------------------------------------|
--0----------2--------------------------------------0----------2-----------------------------|
------------------------0-------------------------------------------------0------------------|

 -------------------------------------0---------0-----------------------------|
----------------0----------0--------------------------------------------------|
--------------2---2------2---2------4---4-----4---4---------------------------|
------------------------------------------------------------------------------|
------------0----------2----------4---------2---------------------------------|
------------------------------------------------------------------------------|

--------------------------0-------0-----------------------|
------0---------0-------------0---------------------------|
----2---2-----2---2-----1---1---1---1---------------------|
----------------------------------------------------------|
--0---------2---------------------------------------------|
----------------------0-----------------------------------|

Verse 2 (1:28 - 1:44)
--4-----------------4------4-----------------------|
----7-5---4-------7----------7-5---4-------7--5----|
-6----------6---4---------6----------6---4---------|
---------------------------------------------------|
---------------------------------------------------|
---------------------------------------------------|

----4------------------------(4?)-----4-----------------------------|
-----7-5--4-----------4-5--7------------7-5--4-----------4-5--------|
---6---------6--6--4-6---------------6---------6--6--4-6------------|
--------------------------------------------------------------------|
--------------------------------------------------------------------|
--------------------------------------------------------------------|


(1:28 - 1:44)
Harmonics
-----<12>----<12>-----------<12>----<12>--------------------<12>-------------|
---------<12>-------------------<12>-----------------------------<12>--<7>---|
-----------------------------------------------------------------------------|
-----------------------------------------------------------------------------|
-----------------------------------------------------------------------------|
-----------------------------------------------------------------------------|


First Chorus (1:45-2:13) (same as intro)

Random riff (2:15 - 2:20)
---------------------12-----------------------------------------|
--9--10--9--10---/12----12--------------------------------------|
----------------------------------------------------------------|
----------------------------------------------------------------|
----------------------------------------------------------------|
----------------------------------------------------------------|

(2:20 - 2:36)
----12-----------12-------------------12---------------12---------------------------|
------12-----------12-------------12---------------12-------------------------------|
------------------------------------13---------------13-----------(x4)--------------|
--14----14-----14----14---------14---------------14---------------------------------|
------------------------------------------------------------------------------------|
------------------------------------------------------------------------------------|

Bridge (2:40 - 2:50)
--12h14---12-------------12--------------------12-------12h14--12----------14------16---14--12-|
--------------12-----------------------------12-----12------------------12------12---(12)-(12)-|
--------13---------13h14----13----------13h14--------------------------------------------------|
-----------------------------------------------------------------------------------------------|
-----------------------------------------------------------------------------------------------|
-----------------------------------------------------------------------------------------------|

Chorus (Same as intro)

Outro after Chorus? (3:21 - 3:37)
Verse 2
--4-----------------------4----------4---------------------4---------|
----7-5--4----------4-5-7--------------7-5--4----------4-5---7-5-----|
-6---------6--6-4-6-----------------6---------6--6-4-6---------------|
---------------------------------------------------------------------|
---------------------------------------------------------------------|
---------------------------------------------------------------------|

--4-----------------------4-7--4---------4-----------------------------|
----7-5--4----------4-5-7--------7-5-------7-5--4----------4-5---------|
-6---------6--6-4-6---------------------6----------6--6-4-6------------|
-----------------------------------------------------------------------|
-----------------------------------------------------------------------|
-----------------------------------------------------------------------|

Bridge2 (3:38 - 3:55)
--12--14--11--12---------------12-14-12------|
--12--12--12--12-----(x3)------12-12-12------|
--13--13--13--13---------------13-13-13------|
---------------------------------------------|
---------------------------------------------|
---------------------------------------------|

Chorus (3:55 - 4:10)
-----12--14p12---16p12----14p12---------------14p12----16p12----14p12-----|
--------------12------12-------12------------------12-------12-------12---|
---13------------------------------------14-------------------------------|
-14-----------------------------------14----------------------------------|
--------------------------------------------------------------------------|
--------------------------------------------------------------------------|

Chorus (4:12 - 4:43) (same as intro)


Key Change Chorus:
Intro and Choruses (4:45 - 5:18)
-------14----16p14-------18p14--------16p14----------------|
----14-------------14----------14-----------14 ------------|
-------------------------------------------------(x?)------|
-16--------------------------------------------------------|
-----------------------------------------------------------|
-----------------------------------------------------------|

Acoustic Outro (5:18 - end)
--------------------------------------------------------------|
------2-------2--------6--------7---------2--------2----------|
----4-------4--------4--------6---------4--------4------------|
--------------------------------------------------------------|
--2-------4--------5--------6---------2--------4--------------|
--------------------------------------------------------(2?)--|
Tap to rate this tab
# A B C D E F G H I J K L M N O P Q R S T U V W X Y Z