Song name
# A B C D E F G H I J K L M N O P Q R S T U V W X Y Z

Radwimps - 25 Kome No Senshokutai tab

-------------------------------------
-----1---3---1----------1---3---1----
---0---0---0--0------0---0----0---0--
-------------------------------------
-3----------------2------------------
-------------------------------------


------------------------------------------
-----1----3-----1-----3----1----3----1----
---0----0-----0----0----0----0----0----0--
------------------------------------------
-0----------------------------------------
------------------------------------------

not too great at tabbing yet, but, i guess try it out, u could improvise if you need to. 

reach me at echang25@hotmail.com Thanks.
Tap to rate this tab
# A B C D E F G H I J K L M N O P Q R S T U V W X Y Z