Song name
# A B C D E F G H I J K L M N O P Q R S T U V W X Y Z

Raein - The Tree tab

Raein - The Tree
Credit: Billybusa (me)
Tuning: Standard

E||------------------------------------------|
B||------------------------------------------|
G||--9-9-9-11-11-11-9-9-12-12-12-12-12-12-12-|
D||------------------------------------------|
A||--7-7-7--9--9--9-7-7-10-10-10-10-10-10-10-|
E||------------------------------------------|

---------------------------------------------|
---------------------------------------------|
--9-9-9-11-11-11-9-9-12-12-12-12-12-12-12-12-|
---------------------------------------------|
--7-7-7--9--9--9-7-7-10-10-10-10-10-10-10-10-|
---------------------------------------------|

---------------------------------------------|
---------------------------------------------|
--7-7-7-11-11-11-7-7-12-12-12-12-12-12-12-12-|
---------------------------------------------|
--5-5-5--9--9--9-5-5-10-10-10-10-10-10-10-10-|
---------------------------------------------|

---------------------------------------------|
---------------------------------------------|
--7-7-7-11-11-11-7-7-12-12-12-12-12-12-12-12-|
---------------------------------------------|
--5-5-5--9--9--9-5-5-10-10-10-10-10-10-10-10-|
---------------------------------------------|

---------------------------------------------|
---------------------------------------------|
--9-9-9-11-11-11-9-9-12-12-12-12-12-12-12-12-|
---------------------------------------------|
--7-7-7--9--9--9-7-7-10-10-10-10-10-10-10-10-|
---------------------------------------------|

---------------------------------------------|
---------------------------------------------|
--9-9-9-11-11-11-9-9-12-12-12-12-12-12-12-12-|
---------------------------------------------|
--7-7-7--9--9--9-7-7-10-10-10-10-10-10-10-10-|
---------------------------------------------|

----------------------------------------------|
----------------------------------------------|
--9-9-9-9-12-12-12-12-11-11-11-11-14-14-14-14-|
----------------------------------------------|
--7-7-7-7-10-10-10-10--9--9--9--9-12-12-12-12-|
----------------------------------------------|

---------------------------------------------|
---------------------------------------------|
--9-9-9-11-11-11-9-9-12-12-12-12-12-12-12-12-|
---------------------------------------------|
--7-7-7--9--9--9-7-7-10-10-10-10-10-10-10-10-|
---------------------------------------------|

---------------------------------------------|
---------------------------------------------|
--9-9-9-11-11-11-9-9-12-12-12-12-12-12-12-12-|
---------------------------------------------|
--7-7-7--9--9--9-7-7-10-10-10-10-10-10-10-10-|
---------------------------------------------|

---------------------------------------------|
---------------------------------------------|
--7-7-7-11-11-11-7-7-12-12-12-12-12-12-12-12-|
---------------------------------------------|
--5-5-5--9--9--9-5-5-10-10-10-10-10-10-10-10-|
---------------------------------------------|

---------------------------------------------|
---------------------------------------------|
--7-7-7-11-11-11-7-7-12-12-12-12-12-12-12-12-|
---------------------------------------------|
--5-5-5--9--9--9-5-5-10-10-10-10-10-10-10-10-|
---------------------------------------------|

---------------------------------------------|
---------------------------------------------|
--9-9-9-11-11-11-9-9-12-12-12-12-12-12-12-12-|
---------------------------------------------|
--7-7-7--9--9--9-7-7-10-10-10-10-10-10-10-10-|
---------------------------------------------|

---------------------------------------------|
---------------------------------------------|
--9-9-9-11-11-11-9-9-12-12-12-12-12-12-12-12-|
---------------------------------------------|
--7-7-7--9--9--9-7-7-10-10-10-10-10-10-10-10-|
---------------------------------------------|

----------------------------------------------|
----------------------------------------------|
--9-9-9-9-12-12-12-12-11-11-11-11-14-14-14-14-|
----------------------------------------------|
--7-7-7-7-10-10-10-10--9--9--9--9-12-12-12-12-|
----------------------------------------------|

Clean Guitar:
-------------------------------------|
--10--10-10-10--10--10-10-10---------|
---9---9--9--9---9---9--9--9--9--9-9-|
------------------------------9--9-9-|
-------------------------------------|
-------------------------------------|

---------------------------------|
---------------------------------|
--9--9--9-9-9--10--10-10-10--10--|
--9--9--9-9-9--10--10-10-10--10--|
---------------------------------|
---------------------------------|

----------------------------------------|
----------------------------------------|
--10-10-10--12--12-12-12--12--12-12-12--|
--10-10-10--12--12-12-12--12--12-12-12--|
----------------------------------------|
----------------------------------------|

-------------------------------------|
-------------------------------------|
--10--10-10-10--10--10-10-10--9--9-9-|
---9---9--9--9---9---9--9--9--9--9-9-|
-------------------------------------|
-------------------------------------|

-------------------------------|
-------------------------------|
--9--9--9-9-9--10--12--12--12--|
--9--9--9-9-9------------------|
-------------------------------|
-------------------------------|

-------------------------------|
-------------------------------|
--10--9--12--10--9--12--10--9--|
-------------------------------|
-------------------------------|
-------------------------------|

-------------------------------------|
-------------------------------------|
--10--10-10-10--10--10-10-10--9--9-9-|
---9---9--9--9---9---9--9--9--9--9-9-|
-------------------------------------|
-------------------------------------|

-------------------------------|
-------------------------------|
--9--9--9-9-9--10--12--12--12--|
--9--9--9-9-9------------------|
-------------------------------|
-------------------------------|

-------------------------------|
-------------------------------|
--10--9--12--10--9--12--10--9--|
-------------------------------|
-------------------------------|
-------------------------------|

Distortion:
|----------------------------|
|----------------------------|
|*-----------9------7--------|
|*--------------10-----------|
|------0------------------0--|
|---5-----4------------5-----|

-------------------------------|
-------------------------------|
-----9------7--10--12--12--12--|
--------10---------------------|
-------------------------------|
--4----------------------------|

                                4x
--------------------------------||
--------------------------------||
--10--9--12--10--9--12--10--9--*||
-------------------------------*||
--------------------------------||
--------------------------------||

----------------------------------|
----------------------------------|
--5-5-5-5-5-5-5-5-5-5-5-5-5-5-5-5-|
----------------------------------|
--3-3-3-3-3-3-3-3-3-3-3-3-3-3-3-3-|
----------------------------------|

----------------------------------|
----------------------------------|
--5-5-5-5-5-5-5-5-5-5-5-5-5-5-5-5-|
----------------------------------|
--3-3-3-3-3-3-3-3-3-3-3-3-3-3-3-3-|
----------------------------------|

--0--0----0--0----0--0----0--0-0--|
--0--0----0--0----0--0----0--0-0--|
--4--4----4--4----4--4----4--4-4--|
----------------------------------|
--2--2----2--2----2--2----2--2-2--|
----------------------------------|

----------------------------------|
----------------------------------|
--5-5-5-5-5-5-5-5-5-5-5-5-5-5-5-5-|
----------------------------------|
--3-3-3-3-3-3-3-3-3-3-3-3-3-3-3-3-|
----------------------------------|

--0--0----0--0----0--0----0--0-0--|
--0--0----0--0----0--0----0--0-0--|
--4--4----4--4----4--4----4--4-4--|
----------------------------------|
--2--2----2--2----2--2----2--2-2--|
----------------------------------|

----------------------------------|
----------------------------------|
--4-4-4-4-4-4-4-4-4-4-4-4-4-4-4-4-|
----------------------------------|
--2-2-2-2-2-2-2-2-2-2-2-2-2-2-2-2-|
----------------------------------|

--0--0----0--0----0--0----0--0-0--|
--0--0----0--0----0--0----0--0-0--|
--4--4----4--4----4--4----4--4-4--|
----------------------------------|
--2--2----2--2----2--2----2--2-2--|
----------------------------------|

-------------------||
-------------------||
--4----------------||
-------------------||
--2----------------||
-------------------||
Tap to rate this tab
 
# A B C D E F G H I J K L M N O P Q R S T U V W X Y Z