Song name
# A B C D E F G H I J K L M N O P Q R S T U V W X Y Z

Raein - Armando 10 Bota tab

Armando 10 Bota
Raein
Ah, as if...

mon.nom.est.thomas.martin@gmail.com


gtr 1
e|-------------------------------------------------------------------|
b|--------------------------101010--------------------------101010---|
g|---9-9-9-7-7-7-9-9-9-7-7-7-7-7-7-7-9-9-9-7-7-7-9-9-9-7-7-7-7-7-7---|
d|---0-0-0-0-0-0-0-0-0-0-0-0-0-0-0-0-0-0-0-0-0-0-0-0-0-0-0-0-0-0-0---|
a|---x-x-x-x-x-x-x-x-x-x-x-x-x-x-x-x-x-x-x-x-x-x-x-x-x-x-x-x-x-x-x---|
e|---7-7-7-7-7-7-7-7-7-7-7-7-7-7-7-7-7-7-7-7-7-7-7-7-7-7-7-7-7-7-7---|

e|---------------------------------|
b|---------------------------------|
g|---6-6-6-6-6-6--7--2-2-2-2-2-2---|
d|---0-0-0-0-0-0--0--0-0-0-0-0-0---|
a|---x-x-x-x-x-x--x--x-x-x-x-x-x---|
e|---5-5-5-5-5-5--7--2-2-2-2-2-2---|

gtr 2
e|--------------------------------------------------------------------|
b|--------------------------------------------------------------------|
g|---9---9---9---9---9---9---9---9---9---9---9---9---9/121212111111---|
d|--------------------------------------------------------------------|
a|--------------------------------------------------------------------|
e|--------------------------------------------------------------------|

e|---------------------------------|
b|---------------------------------|
g|---6--6-6-6-6-6-7--9-9-9-9-9-9---|
d|---------------------------------|
a|---------------------------------|
e|---------------------------------|

e|--------------------------------------------------------------------|
b|--------------------------------------------------------------------|
g|---9---9---9---9---9---9---9---9---9---9---9---9---9/121212111111---|
d|--------------------------------------------------------------------|
a|--------------------------------------------------------------------|
e|--------------------------------------------------------------------|

e|----------------------------------|
b|----------------------------------|
g|---11/141414141414-121212111111---|
d|----------------------------------|
a|----------------------------------|
e|----------------------------------|
Tap to rate this tab
 
# A B C D E F G H I J K L M N O P Q R S T U V W X Y Z