Song name
# A B C D E F G H I J K L M N O P Q R S T U V W X Y Z

Raein - Tigersuit tab

e|---------------------------------------------------------------|
B|------8--8-----------------------10-10-10-10-10----------------|
G|-----------11-11-11-11--------11-------------------------------|
D|9--9--9--9--9--9--9--9-----------------------------------------|
A|7--7--7--7--7--7--7--7--10-10-10-10-10-10-10-10----------------|
E|------------------------8--8--8--8--8--8--8--8-----------------|


e|---------------------------------------------------------------|
B|------8--8-----------------------------------------------------|
G|-----------11-11-11-11-----------------------------------------|
D|9--9--9--9--9--9--9--9--9--9--9--9--11-11-11-11----------------|
A|7--7--7--7--7--7--7--7--10-10-10-12-12-12-12-12----------------|
E|------------------------8--8--8--8--10-10-10-10----------------|



Its about that, this is my very first tab just so ju know and I have no idea if it is the right tuning
Tap to rate this tab
 
# A B C D E F G H I J K L M N O P Q R S T U V W X Y Z