Song name
# A B C D E F G H I J K L M N O P Q R S T U V W X Y Z

Raeth - Aansoo tab

Song     : Aansoo
Artist   : Raeth
Tabbed By: Chirantan
E-Mail   : chirantan.pal@gmail.com 

E|------7--8----8-7---7-5----5-4\-|
B|-3/5~-------5-----5------5------|
G|--------------------------------|
D|--------------------------------|
A|--------------------------------|
E|--------------------------------|

E|------7--8----12-10----10-8----8-7\-|
B|-3/5~-------------------------------|
G|------------9--------9-------9------|
D|------------------------------------|
A|------------------------------------|
E|------------------------------------|
Tap to rate this tab
# A B C D E F G H I J K L M N O P Q R S T U V W X Y Z