Song name
# A B C D E F G H I J K L M N O P Q R S T U V W X Y Z

Rafael Alvarez Ovalle - Himno Nacional De Guatemala tab

HIMNO NACIONAL DE GUATEMALA

Intro:
e-8--8-8-8--8-8-8--8-8-8--8-8-8-------------------------------|
B--------------------------------1--3--5--6---6-6-6-----------|
G-------------------------------------------------------------|
D-------------------------------------------------------------|
A-------------------------------------------------------------|
E-------------------------------------------------------------|

e---5--8-5---3--3-5-------------10--8-8-6-5-5-3---------------|
B-6--------6---------6-1---6--6-------------------------------|
G-------------------------------------------------------------|
D-------------------------------------------------------------|
A-------------------------------------------------------------|
E-------------------------------------------------------------|

e-3-3--3--6-6-6--5-3-5-6-8--------6-6-6-5-5-3-----------------|
B---------------------------6--6--------------6-6-6-6---------|
G-------------------------------------------------------------|
D-------------------------------------------------------------|
A-------------------------------------------------------------|
E-------------------------------------------------------------|


Verso: x2
e------3------5--8-8-8-6-5--5-8-7-5-3-----3-------------------|
B-1--1---1--1-------------------------6-3---1--1--------------|
G-------------------------------------------------------------|
D-------------------------------------------------------------|
A-------------------------------------------------------------|
E-------------------------------------------------------------|

e-------------------------5-3------5-8-10-6-5h8-6h3-----------|
B-1--3--5--6--6-6-6--5-6------6--6------------------6---------|
G-------------------------------------------------------------|
D-------------------------------------------------------------|
A-------------------------------------------------------------|
E-------------------------------------------------------------|


Coro:
e----5--8-5---3--3-5--------------10--8-8-6-5-5-3-------------|
B-6---------6---------6-1---6--6------------------------------|
G-------------------------------------------------------------|
D-------------------------------------------------------------|
A-------------------------------------------------------------|
E-------------------------------------------------------------|

e-3-3--3--6-6-6--5-3-5-6-8-------6-6-6-5-5-3------------------|
B---------------------------6-6--------------6----------------|
G-------------------------------------------------------------|
D-------------------------------------------------------------|
A-------------------------------------------------------------|
E-------------------------------------------------------------|

http://mi-guatemala.tripod.com/Himno.html
Tap to rate this tab
# A B C D E F G H I J K L M N O P Q R S T U V W X Y Z