Song name
# A B C D E F G H I J K L M N O P Q R S T U V W X Y Z

Raffy Calicdan - Wanted Sweetheart chords

Highlighted       Show chord diagrams
This is My First Tab and chords I posted here. Very Accurate po yung chords and tab niyan :)
add me on facebook https://www.facebook.com/haharanahinkita





Intro:
E- G#m- Bm- A- Am-E-F#m
e|-----------------------------------------------------|
B|-----------------------------------------------------|
G|-----------------------------------------------------|
D|-----------------------------------------------------|
A|-4-2-0-----------------------------------------------|
E|-------4-2-0-----------------------------------------|

Verse1: 
E                     G#m  
Ngayong gabi'y magbabakasakaling 
Bm                  A 
Matagpuan ko na ang aking one and only
E                  G#m  
Kinakabahan, nakalusot sa pilahan 
Bm(1strum,let it ring)    A (let it ring ulet XD)
On-air na ako, ano kayang maging usapan

Refrain:
C#m                          G#m  F#m         B
Di ako magrerequest ng kanta Di ako babati at magwawala 
C#m                         G#m  F#m      B
Isa lang naman ang aking hiling Papa Dan, heto na
e|-----------------------------------------------------|
B|-----------------------------------------------------|
G|-----------------------------------------------------|
D|-----------------------------------------------------|
A|-4-2-0-----------------------------------------------|
E|-------4-2-0-----------------------------------------|

Chorus:
E - G#m- Bm- A
Wanted sweetheart, wanted sweetheart Wanted sweetheart mo naman ako, 
Wanted sweetheart, wanted sweetheart Wanted sweetheart mo naman ako. 
Wanted sweetheart, wanted sweetheart Wanted sweetheart mo naman ako, 
Wanted sweetheart, wanted sweetheart Wanted sweetheart mo naman ako.

(Instrumental)

E- G#m- Bm- A (2x) (sabayan ng sipol XD)


C#m                     G#m 
Di magppromote o mageendorse
F#m                                 B
Hopeful lang na may magsabi sa'king I am yours
C#m                  G#m 
Alam mo na ang aking hiling
F#m              B
Papa Dan sige naman oh please

e|-----------------------------------------------------|
B|-----------------------------------------------------|
G|-----------------------------------------------------|
D|-----------------------------------------------------|
A|-4-2-0-----------------------------------------------|
E|-------4-2-0-----------------------------------------|

(Repeat chorus)
Tap to rate this tab
# A B C D E F G H I J K L M N O P Q R S T U V W X Y Z